Cifra Club

Aprenda

Berço de Deus

Milionário e José Rico

Tablatura: Principal (guitarra)
tono: A
[Intro]

E|-----13-13-13--12---------11-11-10-------------|
B|--12--------------14---10-----------11---------|
G|---------------------------------------11------|
D|-----------------------------------------------|
A|-----------------------------------------------|
E|-----------------------------------------------|

E|-------------------------------10--9-----------|
B|---------14-15-14--------9--9------------------|
G|-13--13------------15----------------10-11-----|
D|-----------------------------------------------|
A|-----------------------------------------------|
E|-----------------------------------------------|

E|-----------------------------------------------|
B|-----------------------------------------------|
G|--11-10-9--------------------------------------|
D|-----------------------------------------------|
A|-----------------------------------------------|
E|-----------------------------------------------|

E|-----------------------------------------------|
B|-----------------------------------------------|
G|-----------------------------------------------|
D|-----13-13-13--12---------11-11-10-------------|
A|--12--------------14---10-----------11---------|
E|---------------------------------------11------|

E|-----------------------------------------------|
B|-----------------------------------------------|
G|-----------------------------------------------|
D|-------------------------------10--9-----------|
A|---------14-15-14--------9--9------------------|
E|-13--13------------15----------------10-11-----|

E|-----------------------------------------------|
B|-----------------------------------------------|
G|-----------------------------------------------|
D|-----------------------------------------------|
A|--11-10-9--------------------------------------|
E|-----------------------------------------------|

    A         E                A
Amigo irmão não zombe da natureza  
                                       E
Existem tantas belezas pra gente contemplar! 
         D                     A
Se me seguir passo lento por onde vou  
                    E   D        E A
Com carinho e muito amor, posso lhe mostrar
 
          D                A
Em cima da terra e no fundo do mar  
              E       D     A
Existe um tesouro pra gente desfrutar! 
 
             E              A
Amigo irmão o verde nasce da terra  
                                                E
O azul  do céu desce a serra num desenho magistral  
           D                      A
Olhai os campos que cercam o horizonte  
                   E     D    E    A
Eis o berço fulgurante do pai celestial
Composição de Dino Franco / José Rico
Colaboración y revision:
  • Thiago Morais
  • valdir araujo
  • Souza, de
325 reproducciones
    • ½ Tono
    • A
    • Bb
    • B
    • C
    • Db
    • D
    • Eb
    • E
    • F
    • F#
    • G
    • Ab
  • Adicionar à lista

    0 comentarios

    Ver todos os comentários
    00:00 / 00:00
    outros vídeos desta música
    repetir qualidade Automático
    Outros vídeos desta música
    00:00 / 00:00
    Automático
    OK