Cifra Club

Aprenda

Canção de Um Amor Distante

Milionário e José Rico

Tablatura: Principal (guitarra)
tono: G
       
E|-0-0-12---0-0-10---0-0-8----0-0-7---0-0-13---0-0-12---0-0-10---0-0-8----0-0-12---0-0-10-|
B|-----13-------12-------10-------9-------15-------13-------12-------10-------13-------12-|
G|----------------------------------------------------------------------------------------|
D|----------------------------------------------------------------------------------------|
A|----------------------------------------------------------------------------------------|
E|----------------------------------------------------------------------------------------|

E|-0-0-8----0-0-7-------------------------------------------------------------------------|
B|-----10-------9---5-5-6---3-3-5---1-1-0---0---------1---3\5---5-------------------------|
G|----------------------7-------5---------------2-----------------------------------------|
D|----------------------------------------------------------------------------------------|
A|----------------------------------------------------------------------------------------|
E|----------------------------------------------------------------------------------------|

INTRO: Am E7 Am E7 Am (2x)

   Am      E7            Am
Eu vivo recordando com saudade
                           E7
Os beijos que te dei com emoção
   Dm                     E7
Naquela noite cheia de ternura
                               Am    E7
Quando entregaste a mim teu coração
      Am         E7            Am
Em sonhos eu te vejo em meus braços
  A7                    Dm
Pedindo pra nunca te deixar
   G                        C
Dizendo estas palavras comovidas
 E7                       A
Amor doce ilusão do meu sonhar.

REFRÃO:
                    E7
Eu deixei lá na fronteira
                  A
A mulher dos meu amores
        F#m           Bm
Mais formosa que as flores
    E7           A    D A
De sorriso sem igual
                    E7
Eu sem ti não sei viver
                 A
Minha deusa prometida
     F#m              Bm
Nada mais me serve a vida
      E7           A    Am
Se um dia eu te perder.

INTRO: Am E7 Am E7 Am (2x)

    Am         E7            Am
Não sei porque a gente se apaixona
                              E7
E entrega o coração assim a alguém
   Dm                     E7
Depois vem uma triste despedida
                             Am   E7
E rouba o melhor que a gente tem
   Am          E7            Am
Deixei muito distante minha amada
   A7                       Dm
Dizendo que voltava e não voltei
    G                         C
Oh deus se não levar-me de regresso
   E7                   A
Chorando de saudade morrerei.

REFRÃO:
                    E7
Eu deixei lá na fronteira
                  A
A mulher dos meu amores
        F#m           Bm
Mais formosa que as flores
    E7           A    D A
De sorriso sem igual
                    E7
Eu sem ti não sei viver
                 A
Minha deusa prometida
     F#m              Bm
Nada mais me serve a vida
      E7           A    Bm
Se um dia eu te perder
    E7              A    A7  D   E7   A
Eu sem ti não sei viver, vi ver viver Ihhhhhhh.
Composição de De Los Rios Altinier / Eulogio Cardoso
Colaboración y revision:
  • Evair Brandão
  • Edson Nogueira
233 reproducciones
    • ½ Tono
    • A
    • Bb
    • B
    • C
    • Db
    • D
    • Eb
    • E
    • F
    • F#
    • G
    • Ab
  • Adicionar à lista

    0 comentarios

    Ver todos os comentários

    ¿Conseguiste tocar?

    2 Tocaram 0 Ainda não

    Grave um vídeo tocando Canção de Um Amor Distante e nos envie!

    00:00 / 00:00
    outros vídeos desta música
    repetir qualidade Automático
    Outros vídeos desta música
    00:00 / 00:00
    Automático
    OK