Cifra Club

Aprenda

Linda Morena

Milionário e José Rico

Tablatura: Principal (guitarra)
tono: D
Intro: D  E7  A  D  E7  A  D  E7  A  E7  A  A7

    D          E7  A      D          E7   A     D         E7
E|---------------------------------------------------------------------|
A|---------------------------------------------------------------------|
D|---------------------------------------------------------------------|
G|-2--------------2~-----2---------------2~----2-----------------------|
B|---0-2h3p2---------------0-2h3p2---------------0-2h3p2---------------|
E|------------0---------------------0--------------------0---0-0-0-0-0-|

              A           E7             A                       A7
E|------------------------------------------------------------------------|
A|------------------------------------------------------------------------|
D|------------------------------------------------------------------------|
G|-----------2~-------------------------2~--2-------------------2~--------|
B|-3p2p0h2-------0-2h3p2------3p2p0h2---------0-2h3p2~--2h3p2p0-----------|
E|------------------------0-----------------------------------------------|

D        A
Ooooi, morena!
  D          A           E7  A  A7
Morena eu te amo, e como te amo
D              A
Ooooi, linda morena!
  D             A          E7  A  A7
Morena de Campo Grande, eu te amo

  D            E7           A
Daqui eu fui embora, mas voltei
   D                 A             E7 A  A7
Voltei porque não consigo viver sem ela
        D            E7           A
Esta paixão que toma conta do meu peito
               D              A              E7 A  A7
Não teve outro jeito, me obrigou a voltar pra ela

          D             E7             A
Já fiz de tudo pra esquecê-la e não consigo
        D             A              D        E7    A     A7
Você precisa voltar comigo, e dar um jeito na minha vida
         D             E7           A
O amor é lindo e exige sempre fidelidade
       D               E7   A         D      E7   A     A7
Você judia, mas tem saudade deste seu homem apaixonado

( D E7 A D E7 A D E7 A E7 A A7 )

D        A
Ooooi, morena!
  D          A           E7   A  A7
Morena eu te amo, e como te amo
D              A
Ooooi, linda morena!
  D             A          E7  A  A7
Morena de Campo Grande, eu te amo

  D            E7           A
Daqui eu fui embora, mas voltei
   D                 A             E7 A  A7
Voltei porque não consigo viver sem ela
        D            E7           A
Esta paixão que toma conta do meu peito
               D              A              E7 A  A7
Não teve outro jeito, me obrigou a voltar pra ela

          D             E7             A
Já fiz de tudo pra esquecê-la e não consigo
        D             A              D        E7    A     A7
Você precisa voltar comigo, e dar um jeito na minha vida
         D             E7           A
O amor é lindo e exige sempre fidelidade
       D               E7   A         D      E7   A
Você judia, mas tem saudade deste seu homem apaixonado
Composição de José Rico / Oscar Safuan
Colaboración y revision:
  • Hanz
89 reproducciones
    • ½ Tono
    • A
    • Bb
    • B
    • C
    • Db
    • D
    • Eb
    • E
    • F
    • F#
    • G
    • Ab
  • Adicionar à lista

    0 comentarios

    Ver todos os comentários
    00:00 / 00:00
    outros vídeos desta música
    repetir qualidade Automático
    Outros vídeos desta música
    00:00 / 00:00
    Automático
    OK