Cifra Club

Praia Deserta

Milionário e José Rico

Cifrado: Principal (guitarra y guitarra eléctrica)
tono: A
Intro 2x:
      A
E|-9------9---------9----|-9------9---------9----|
B|--10-----10------------|--10-----10------------|
G|----9-----------9---9--|----9-----------9---9--|
D|-----------------------|-----------------------|
A|-----------------------|-----------------------|
E|-----------------------|-----------------------|

 A                                            Bm
Na praia deserta escrevo na areia o nome de  alguem,
 E7                                             A
Um barco partindo ao longe sumindo, levando o meu bem,

  A                                         Bm
Se existe motivo, aqui eu não vivo, tambem partirei,
  E7                                                A
Minha dor é castigo,quando estava comigo, eu nunca chorei,

  A               Bm    E7              A
Ouço a sereia cantar, toda tristeza no mar

   A7                  Bm
Choro com as ondas a dor,
E7                A
Porque perdemos o amor
      A                                               E7
E|-9------9---------9----|-9------9---------9----|-7-----7--------7----|
B|--10-----10------------|--10-----10------------|--9-----9------------|
G|----9-----------9---9--|----9-----------9---9--|---9----------9---9--|
D|-----------------------|-----------------------|---------------------|
A|-----------------------|-----------------------|---------------------|
E|-----------------------|-----------------------|---------------------|

uhh,uhhh........................................

A                                              Bm
A mágoa infinita, se espraia e grita, doendo em mim,
E7                                                 A
E o  meu desengano, é igual ao oceano tambem não tem fim

  A                                          Bm
Se existe motivo, aqui eu não vivo, tambem partirei,
  E7                                                 A
Minha dor é castigo, quando estava comigo eu nunca chorei,

A               Bm     E7              A
Ouço a sereia cantar,toda tristeza do mar

   A7                  Bm
Choro com as ondas a dor,
E7                A
Porque perdemos o amor
Composición de José Rico / Paulo Gaucho
Colaboración y revisión:
384 vistas
    • ½ Tono
    • A
    • Bb
    • B
    • C
    • Db
    • D
    • Eb
    • E
    • F
    • F#
    • G
    • Ab
  • Agregar a la lista

    0 comentarios

    Ver todos los comentarios
    00:00 / 00:00
    Outros vídeos desta música
    Repetir Calidad Automático
    Outros vídeos desta música
    00:00 / 00:00
    Automático
    OK