Cifra Club

Quem Disse Que Esqueci

Milionário e José Rico

Cifrado: Principal (guitarra y guitarra eléctrica)
Já pensou em usar uma coleção de roupas do Cifra Club? Responda as perguntas abaixo e nos ajude nessa missão! →
tono: E
[Intro] E  B  A  E
        E  B  A  G#m  
        F#m  E

E|--------------------------------------------16-14--------|
B|--------------------------------------------------16-12--|
G|---------------------------------------------------------|
D|-4/6/4---------------------------------------------------|
A|-------77--4/6/4-----------7-----------------------------|
E|-----------------77--5h7-5----2-4h5p4-2-4----------------|

E|---------------------------------------------------------|
B|---------------------------------------------------------|
G|---------------------------------------------------------|
D|-4/6/4---------------------------------------------------|
A|-------77--4/6/4-----------------------------------------|
E|-----------------77--245-4-2-0---------------------------|

                     E
Quem disse que esqueci
                                B
Se tudo por aqui, ainda está igual?
       A
Eu fiquei assim vadio e tão manhoso
       E
Feito gato no tapete preguiçoso
     B
Esperando o leite quente
       A                        E       B7
Que você tão sorridente, acostumou tão mal

                     E
Quem disse que esqueci
                     E7          A
Se ainda não morri e vivo a esperar por você?
                                E
Ninguém me faz amor do jeito que eu aceite
                        B
Eu fico feito gato esperando leite
  A            B7         E          B7
Apago a luz e não consigo adormece

[Refrão]

E                  B7
Pode apostar que eu não te esqueci
                          E
Pode esquecer um outro alguém aqui
       Bm7       E7               A
Eu já tentei,  me abri, fechei, porque foi tudo em vão
         E       B7           E       B7
Eu não consigo convencer meu coração

                     E
Quem disse que esqueci
                     E7          A
Se ainda não morri e vivo a esperar por você?
                                E
Ninguém me faz amor do jeito que eu aceite
                        B
Eu fico feito gato esperando leite
  A            B7         E          B7
Apago a luz e não consigo adormecer

 E                  B7
Pode apostar que eu não te esqueci
                           E
Pode esquecer um outro alguém aqui
          Bm7       E7               A
Eu já tentei,  me abri, fechei, porque foi tudo em vão
           E       B7           E        B7
Eu não consigo convencer meu coração

 E                  B7
Pode apostar que eu não te esqueci
                           E
Pode esquecer um outro alguém aqui
          Bm7       E7               A
Eu já tentei,  me abri, fechei, porque foi tudo em vão
           E       B7         ( A  G#m  F#m )   E
Eu não consigo convencer meu coração
Composición de Alexandre / Darci Rossi
Colaboración y revisión:
  • Eduardo Santos
  • Ronan Carlo
  • leonardo oliveira
902 vistas
    • ½ Tono
    • A
    • Bb
    • B
    • C
    • Db
    • D
    • Eb
    • E
    • F
    • F#
    • G
    • Ab
  • Agregar a la lista

    0 comentarios

    Ver todos los comentarios

    ¿Lograste tocar?

    3 Tocaron 3 Aún no

    ¡Graba un video tocando Quem Disse Que Esqueci y envíanoslo!

    00:00 / 00:00
    Outros vídeos desta música
    Repetir Calidad Automático
    Outros vídeos desta música
    00:00 / 00:00
    Automático
    OK