Enviar cifraEntrar

Sonhei Com Você

Milionário e José Rico

Acordes: Principal
reproducciones 1.155
Tono: A
[Intro] Bm7  E7  A7+  A6  Bm7  E7  A7+  A6
        Bm7  E7  A7+  A9  E  E7  A


            Bm7 E7         A7+ A6        Bm7 E7              A7+ A6
E|--------------------------------------------------------------------------|
B|---2-5--3-3-3-----3-7--5-5-5-----2-5--3-3--7-7--5-5--3/5-5~---------------|
G|-2---6--4-4-4---4---7--6-6-6---2---6--4-4--7-7--6-6--4/6-6~---------------|
D|--------------------------------------------------------------------------|
A|--------------------------------------------------------------------------|
E|--------------------------------------------------------------------------|


            Bm7 E7         A7+ A9        E E7                A
E|-----------------------------------4--2-2--0-0-------------------------|
B|---2-5--3-3-3-----3-7--5-5-5-----2--------------3-3--2-2---------------| 
G|-2---6--4-4-4---4---7--6-6-6---2---4--2-2--1-1-------------------------| 
D|------------------------------------------------4-4--2-2---------------| 
A|-----------------------------------------------------------------------|
E|-----------------------------------------------------------------------|


   A             E7        A
Depois de muito tempo acordado
       A       E7       A
Já cansado de tanto sofrer
               D         A
Esta noite dormi um pouquinho
            E
Sonhei com você

   Bm                 E
Você apareceu em meu quarto
      Bm                  E
E sorrindo me estendeu a mão
                               E7
Se atirou em meus braços e beijou-me
        A
Com emoção

     A          E7       A
E matando a paixão recolhida
       A        E7    A
Num delírio de felicidade
             D        A7
Em soluço você me dizia
              D
Amor, que saudade

                E7         A
De repente, em menos de minuto
                         E
Você se transformou num vulto
   D      E7    A   A7
E logo desapareceu
      D         E7         A
De repente, em menos de minuto
                         E
Você se transformou num vulto
   D   E7       A
E logo desapareceu

  E                    D            A
Quando acordei não te vi, que desespero
        E                    E7                 A
Minhas lágrimas molharam a fronha do meu travesseiro
     E                  D                 A
Meu bem, como é maravilhoso sonhar com você!
E                    E7       A
Amor como é triste acordar e não te ver

[Bm7 E7  A7+ A6  Bm7 E7  A7+ A6]
[Bm7 E7  A7+ A9  E E7    A]

     A          E7       A
E matando a paixão recolhida
       A        E7    A
Num delírio de felicidade
           D         A7
Em soluço você me dizia:
              D
Amor, que saudade

                E7         A
De repente, em menos de minuto
                         E
Você se transformou num vulto
   D    E7     A   A7
E logo desapareceu
      D         E7         A
De repente, em menos de minuto
                         E
Você se transformou num vulto
   D    E7      A
E logo desapareceu

  E                    D            A
Quando acordei não te vi, que desespero
        E                    E7                 A
Minhas lágrimas molharam a fronha do meu travesseiro
     E                  D               A
Meu bem, como é maravilhoso sonhar com você!
E                    E7       A           [D C#m Bm A]
Amor como é triste acordar e não te ver

[E D A E7 A]
  • 1
  • 2
  • 3
  • 4
  • 5
  • 6
  • 7
  • 8
  • 9
  • 10
  • 11
  • 12
    Acordes para:

      0 comentarios

        mostrar mas comentarios

        ¿Conseguiste tocar?

        17tocaron0aún no

        ¡Grave un vídeo tocando Sonhei Com Você y envie para nosotros!

        00:00 / 00:00
        outros vídeos desta música
        repetirqualidadeautomática
        • automática
        Outro vídeos desta música
          00:00 / 00:00
          automática
          • automática
          Acordes para:guitarra
          dificuldadreproduccionescontribuciones
          1 versión de Guitar Proformatodownloadscontribución
          cerrarplay/pause subir/bajar velocidad
            Acordes para:guitarra
            acordes
            cerrar
            OK