Cifra Club

Losing You

Milky Chance

Cifrado: Principal (guitarra y guitarra eléctrica)
tono: G
[Refrão]

 G                         Am                 C  D  Em
They say that I'm about to lose you tell me why
 G                        Am            C  D  Em
It's been a lot of confusion still we try
 G                         Am                 C  D  Em
They say that I'm about to lose you tell me why
 G                        Am            C  D  Em
It's been a lot of confusion still we try

( G  Am  C  Em  D )

[Primeira Parte]

 G                 Am
Need to make some time
 C                        Em  D
Who's to say, if I'm alright
 G               Am
And take another lie
 C                        Em  D
Til they drop the common lie
 G                    Am
Learned how to tell a lie
 C                           Em  D
Who's to blame for such a crime
 G                 Am
I want to make it right
 C                    Em       D
Is it you who's gonna hold me tight
 C                    Em       D
Is it you who's gonna hold me tight

[Refrão]

 G                         Am                 C  D  Em
They say that I'm about to lose you tell me why
 G                       Am             C  D  Em
It's been a lot of confusion still we try
 G                         Am                 C  D  Em
They say that I'm about to lose you tell me why
 G                       Am             C  D  Em
It's been a lot of confusion still we try

( G  Am  C  Em  D )
( G  Am  C  Em  D )

[Segunda Parte]

 G                 Am
Need to make some time
 C                        Em  D
Who's to say, if I'm alright
 G               Am
And take another lie
 C                        Em  D
Til they drop the common lie
 G                    Am
Learned how to tell a lie
 C                           Em  D
Who's to blame for such a crime
 G                 Am
I want to make it right
 C                    Em       D
Is it you who's gonna hold me tight
 C                    Em       D
Is it you who's gonna hold me tight

[Solo]
 
Parte 1 de 3 

E|---------------------------------------------------------------------------|
B|---------8-----------------------------------------------------------------|
G|---7--9-----9--7-----------------------------------------------------------|
D|------------------9--7---7--5---------------5------------------------------|
A|-------------------------------7--5---5--7---------------------------------|
E|---------------------------------------------------------------------------|

E|---------------------------------------------------------------------------|
B|---------8-----------------------------------------------------------------|
G|---7--9-----9--7-----------------------------------------------------------|
D|------------------9--7---7--5---------------5-----7------------------------|
A|-------------------------------7--5---5--7-----7---------------------------|
E|---------------------------------------------------------------------------|

Parte 2 de 3

E|---------------------------------------------------------------------------|
B|---------8-----------------------------------------------------------------|
G|---7--9-----9--7-----------------------------------------------------------|
D|------------------9--7---7--5---------------5------------------------------|
A|-------------------------------7--5---5--7---------------------------------|
E|---------------------------------------------------------------------------|

E|---------------------------------------------------------------------------|
B|---------8--------------------------------8--------------------------------|
G|---7--9-----9--7---------------7----7--9-----------------------------------|
D|------------------9--7---7--9-----9----------------------------------------|
A|---------------------------------------------------------------------------|
E|---------------------------------------------------------------------------|

Parte 3 de 3

E|------------------7--5------------------8--7-------------------------------|
B|---------8---------------------8-------------------------------------------|
G|---7--9-----9--7---------7--9-----9--7-------------------------------------|
D|---------------------------------------------------------------------------|
A|---------------------------------------------------------------------------|
E|---------------------------------------------------------------------------|

E|------------------7--10--7-------------------------------------------------|
B|---------8------------------10--8------------------------------------------|
G|---7--9-----9--7--------------------9--7-----------------------------------|
D|------------------------------------------9--7--5-----5--------------------|
A|---------------------------------------------------7-----5-----------------|
E|---------------------------------------------------------------------------|

E|------------------7--5------------------8--7-------------------------------|
B|---------8---------------------8-------------------------------------------|
G|---7--9-----9--7---------7--9-----9--7-------------------------------------|
D|---------------------------------------------------------------------------|
A|---------------------------------------------------------------------------|
E|---------------------------------------------------------------------------|

E|--------------------7--10--7-----------------------------------------------|
B|---------8--------------------10--8----------------------------------------|
G|---7--9-----9--7----------------------9--7---------------------------------|
D|--------------------------------------------9--7--5---------5--------------|
A|------------------------------------------------------7--5-----------------|
E|---------------------------------------------------------------------------|

( G  Am  C  Em  D )

 G                 Am
Need to make some time
 C                   Em  D
Running the common lie
 G                 Am
Need to make some time
 C                       Em  D
Running for the common lie
 G                 Am
Need to make some time
 C                       Em  D
Running for the common lie
 C                       Em  D
Running for the common lie

( G )
Composición de Clemens Rehbein
Colaboración y revisión:
  • Anselmo Gomes
30 vistas
    • ½ Tono
    • A
    • Bb
    • B
    • C
    • Db
    • D
    • Eb
    • E
    • F
    • F#
    • G
    • Ab
  • Agregar a la lista

    0 comentarios

    Ver todos los comentarios

    ¿Lograste tocar?

    0 Tocaron 0 Aún no

    ¡Graba un video tocando Losing You y envíanoslo!

    00:00 / 00:00
    Otros videos de esta canción
    Repetir Calidad Automático
    Otros videos de esta canción
    00:00 / 00:00
    Automático
    OK