Cifra Club

Oh Mama

Milky Chance

Cifrado: Principal (guitarra y guitarra eléctrica)
tono: C#m
[Intro] F#m  E  F#m  E
 
E|----------------------------------------------------|
B|------x-----------x--------x----------x-------------|
G|-/6---x-------6---x--------x----------x-------------|
D|-/7---x-------7---x---/6---x------6---x-------------|
A|------x-----------x---/7---x------7---x-------------|
E|----------------------------------------------------|

E|----------------------------------------------------|
B|------x-----------x--------x----------x-------------|
G|-/6---x-------6---x--------x----------x-------------|
D|-/7---x-------7---x---/6---x------6---x-------------|
A|------x-----------x---/7---x------7---x-------------|
E|----------------------------------------------------|

E|----------------------------------------------------|
B|------------x-----------x-------------x----------x--|
G|------------x-----------x-------------x----------x--|
D|------------x-----------x-------------x----------x--|
A|-----/6-----x------6----x--------6----x-----6----x=-|
E|-----/7------------7-------------7----------7-------|

[Primeira Parte]

  F#m                               E
Slowly we are falling through the cracks
F#m                                 E
It just feels like something we regret
 F#m                             E
Don't know what to do and how to act
           B                    
Out of my means or that's our feels
 F#m                              E
Lately we've been covered by the past
     F#m                                 E
But don't you think that we are made to last?

[Pré-Refrão]

 F#m                               E
Rather than just stumbling in the dark
        B            G#
In the dark, in the dark (jo)
 
[Refrão]

C#m             G#       
 Oh when we get old mam
B                 E
 We think it was no drama
C#m                  G#    
 Cos when we would know
        B                 E
It was better letting it go
C#m               G#
 Why couldn't it be 
        B                   E
Just a little more easy to see, darling?
C#m                 G#   
 That would've been all
              B                E
Would've been all we needed to know
 
[Solo] C#m  G#  B  E
       C#m  G#  B  E

E|-16-14-12-----------------16-14-12------------------|
B|----------16-16/17/14--------------16-16/17/14------|
G|----------------------------------------------------|
D|----------------------------------------------------|
A|----------------------------------------------------|
E|----------------------------------------------------|

E|-16-14-12----------------------16-14-12-------------|
B|----------16-16/17/14--12-14------------16-16/17/14-|
G|----------------------------------------------------|
D|----------------------------------------------------|
A|----------------------------------------------------|
E|----------------------------------------------------|

[Segunda Parte]

F#m                     E
 Sun is up the hillside, I was being blue-eyed
F#m                  E
 Seas on the no time, trouble on the inside
F#m
 So far we've been trying to see the light
E
 So hard, listen it was totally bright
B
 Surely right, feelings tight

Thinking of the call on my mind, saying

F#m                            E
Oh what, why is everything so messed up?
                   F#m
Anyway we made it so far
                      E
What are we tasting true love?

How does it feel like

[Pré-Refrão]

F#m
 Remedy, so economically
E
 As strong as the force of your fantasy
B                          G#
 Or am I more? It's gonna be a mystery
 
[Refrão]

C#m             G#       
 Oh when we get old mam
B                 E
 We think it was no drama
C#m                  G#    
 Cos when we would know
        B                 E
It was better letting it go
C#m               G#
 Why couldn't it be 
        B                   E
Just a little more easy to see, darling?
C#m                 G#   
 That would've been all
              B                E
Would've been all we needed to know
 
[Solo] C#m  G#  B  E
       C#m  G#  B  E

E|-16-14-12---------------16-14-12--------------------|
B|----------16-16/17/14------------16-16/17/14--12-14-|
G|----------------------------------------------------|
D|----------------------------------------------------|
A|----------------------------------------------------|
E|----------------------------------------------------|

E|-16-14-12----------------------16-14-12-------------|
B|----------16-16/17/14--12-14------------16-16/17/14-|
G|----------------------------------------------------|
D|----------------------------------------------------|
A|----------------------------------------------------|
E|----------------------------------------------------|

( C#m  G#  B  E )
( C#m  G#  B  E )
( C#m  G#  B  E )
( C#m  G#  B  E )
 
[Refrão]

C#m             G#       
 Oh when we get old mam
B                 E
 We think it was no drama
C#m                  G#    
 Cos when we would know
        B                 E
It was better letting it go
C#m               G#
 Why couldn't it be 
        B                   E
Just a little more easy to see, darling?
C#m                 G#   
 That would've been all
              B                E
Would've been all we needed to know
Compositor no encontrado.
Colaboración y revisión:
  • Getúlio Vasconcelos
88 vistas
    • ½ Tono
    • Am
    • Bbm
    • Bm
    • Cm
    • C#m
    • Dm
    • Ebm
    • Em
    • Fm
    • F#m
    • Gm
    • G#m
  • Agregar a la lista

    0 comentarios

    Ver todos los comentarios

    ¿Lograste tocar?

    1 Tocaron 0 Aún no

    ¡Graba un video tocando Oh Mama y envíanoslo!

    00:00 / 00:00
    Otros videos de esta canción
    Repetir Calidad Automático
    Otros videos de esta canción
    00:00 / 00:00
    Automático
    OK