Cifra Club

Sween Sun

Milky Chance

Cifrado: Principal (guitarra y guitarra eléctrica)
tono: G
(B Em C G)
Look at you
I am attracted to you like the sun
To the moon and ill be sweeping when I touch the skin
Take you soaring to the wide open space league
Then we striped an area so that that you can see
How we explode like the lights in the dark
And how we glow
Like it will never be the truth of the minds that we forget
So let me tell you what I know if I can
You know I try
I never want to leave the bible we've made when we create

MM you're my baby
And your sweet sweet sun makes me crazy
MM you're my baby
I want to lay you down and see how you amaze me

E|-------------------------|
B|-------------------------|
G|-------------------------|
D|-------------------------| 4x
A|-2-------1-2-3-------0-1-|
E|---3-2-0-------0-2-3-----|

(B Em C G)
You push me up to the inglorious shadows of a craving
And if we fall we blow up like exponential assembly
I never thought that some training can stand
Your mind from behaving
Did you forget the joy you've reaped
And all the times that we made it
We were the pink gold soldiers of the century of blissful
We were 1969
We were Jimmy and Janice
We are the prophets of the sails
We choose the way of dimension
We are caught up from the amount
Of the frenetic love tension

MM you're my baby
And your sweet sweet sun makes me crazy
MM you're my baby
I want to lay you down and see how you amaze me

E|-------------------------|
B|-------------------------|
G|-------------------------|   4x
D|-------------------------|
A|-2-------1-2-3-------0-1-|
E|---3-2-0-------0-2-3-----|


Bridge

       4x         4x         4x          4x
E|--2--2-x-x--|7--7-x-x--|3--3-x-x--|10--10-x-x--|      
B|--4--4-x-x--|8--8-x-x--|5--5-x-x--|12--12-x-x--|
G|--4--4-x-x--|9--9-x-x--|5--5-x-x--|12--12-x-x--|   
D|--4--4-x-x--|9--9-x-x--|5--5-x-x--|12--12-x-x--| Guitarra 1
A|--2--2-x-x--|7--7-x-x--|3--3-x-x--|10--10-x-x--|
E|------------|----------|----------|------------|

               2x                         2x                         2x
E|--------11-------11----11-|--------12-------12----12-|--------12-------12----12-|-------------------|-----------------------------|
B|-12--12----12-12----12----|-12--12----12-12----12----|-13--13----13-13----13----|-12--12-----12--12-|-12-12-12-12-11--10--8--7--5-|
G|--------------------------|--------------------------|--------------------------|-12--12-----12--12-|-12-12-12-12-11--10--8--7--5-|
D|--------------------------|--------------------------|--------------------------|-------------------|-----------------------------|Guitarra 2
A|--------------------------|--------------------------|--------------------------|-------------------|-----------------------------|
E|--------------------------|--------------------------|--------------------------|-------------------|-----------------------------|

(B Em C G)
You push me up to the inglorious shadows of a craving
And if we fall we blow up like exponential assembly
I never thought that some training can stand
Your mind from behaving
Did you forget the joy you've reaped                    E|--------11-----------12-----------12--------|
And all the times when we made it                       B|-12--12----12-12--12----12-13--13----13-12~-|
We were the pink gold soldiers                          G|--------------------------------------------| 8x
Of the century of blissful                              D|--------------------------------------------|
We were 1969                                            A|--------------------------------------------|
We were Jimmy and Janice                                E|--------------------------------------------|
We are the prophets of the sails
We choose the way of dimension
We are caught up from the amount
Of the frenetic love tension

MM you're my baby
And your sweet sweet sun makes me crazy
MM you're my baby
I want to lay you down and see how you amaze me


E|----------------------------|
B|----------------------------|
G|----------------------------|
D|----------------------------| 12x
A|-2-------1-2-3-------0-1----|
E|---3-2-0-------0-2-3--------|

       2x          2x
E|-2--2-x-x--|-7--7-x-x--|-2--2-x-x-2--2-x-x-2--2-x-x-|-2--2--7-|    
B|-4--4-x-x--|-8--8-x-x--|-4--4-x-x-4--4-x-x-4--4-x-x-|-4--4--8-|
G|-4--4-x-x--|-9--9-x-x--|-4--4-x-x-4--4-x-x-4--4-x-x-|-4--4--9-|
D|-4--4-x-x--|-9--9-x-x--|-4--4-x-x-4--4-x-x-4--4-x-x-|-4--4--9-|
A|-2--2-x-x--|-7--7-x-x--|-2--2-x-x-2--2-x-x-2--2-x-x-|-2--2--7-|
E|-----------|-----------|----------------------------|---------|
Composición de Clemens Rehbein
Colaboración y revisión:
  • Paulo Oliveira
89 vistas
    • ½ Tono
    • A
    • Bb
    • B
    • C
    • Db
    • D
    • Eb
    • E
    • F
    • F#
    • G
    • Ab
  • Agregar a la lista

    0 comentarios

    Ver todos los comentarios

    ¿Lograste tocar?

    1 Tocaron 0 Aún no

    ¡Graba un video tocando Sween Sun y envíanoslo!

    00:00 / 00:00
    Otros videos de esta canción
    Repetir Calidad Automático
    Otros videos de esta canción
    00:00 / 00:00
    Automático
    OK