Cifra Club

Sweet Sun

Milky Chance

Cifrado: Principal (guitarra y guitarra eléctrica)
tono: G
Intro/Verso/Refrão:

        B         Em        C         G
E|--2--2-x-x--7--7-x-x--3--3-x-x--10--10-x-x--|      
B|--4--4-x-x--8--8-x-x--5--5-x-x--12--12-x-x--|
G|--4--4-x-x--9--9-x-x--5--5-x-x--12--12-x-x--|   
D|--4--4-x-x--9--9-x-x--5--5-x-x--12--12-x-x--| Guitarra 1
A|--2--2-x-x--7--7-x-x--3--3-x-x--10--10-x-x--|
E|---------------------------------------------------|

E|-------------------------------------------------|
B|-------------------------------------------------|
G|-------------------------------------------------| 
D|-------------------------------------------------|
A|--0-1-2---------1-2-3------------------------|
E|---------3-2-0---------0-2-3-----------------|

Ponte:

        B  4x      Em 4x      C  4x      G   4x
E|--2--2-x-x--|7--7-x-x--|3--3-x-x--|10--10-x-x--|      
B|--4--4-x-x--|8--8-x-x--|5--5-x-x--|12--12-x-x--|
G|--4--4-x-x--|9--9-x-x--|5--5-x-x--|12--12-x-x--|   
D|--4--4-x-x--|9--9-x-x--|5--5-x-x--|12--12-x-x--| (Guitarra 1)
A|--2--2-x-x--|7--7-x-x--|3--3-x-x--|10--10-x-x--|
E|------------|----------|----------|-------------------|

         2x                 2x                 2x              2x
E|------------------|-----------------|-----------------|---------------|---------------------------|
B|------4-----4---4-|-----5-----5---5-|-----5-----5---5-|-4--4----4--4----|-/3/2/1/0-|
G|--4-4---4-4---4---|-4-4---4-4---4---|-5-5---5-5---5---|-4--4----4--4--|-/3/2/1/0-| (Guitarra 2) 
D|------------------|-----------------|-----------------|---------------|---------------------------|
A|------------------|-----------------|-----------------|---------------|---------------------------|
E|------------------|-----------------|-----------------|---------------|---------------------------|


Intro: B Em C G

Verso 1:

Look at you
B        Em          C          G
I am attracted to you like the sun
       B               Em              C             G
To the moon and ill be sweeping when i touch the skin
          B             Em        C           G
Take you soaring to the wide open space league
        B            Em         C            G
Then we striped an area so that that you can see
           B            Em             C
How we explode like the lights in the dark 
           G
And how we glow
             B            Em                C           G
Like it will never be the truth of the minds that we forget
          B               Em            C
So let me tell you what i know if I can
           G
you know i try
        B                 Em             C            G
I never want to leave the bible we've made when we create


(Ponte)


B  Em        C  G
Mmmm you're my baby
         B           Em          C   G
And your sweet sweet sun makes me crazy
B  Em        C  G
Mmmm you're my baby
          B                Em           C    G
I want to lay you down and see how you amaze me

Refrão:

You push me up to the inglorious shadows of a craving
And if we fall we blow up like exponential assembly
I never thought that some training can stand your mind from behaving
Did you forget the joy you've reaped and all the times that we made it
We were the pink gold soldiers of the century of blissful
We were 1969
We were Jimmy and Janice
We are the prophets of the sails
We choose the way of dimension 
We are caught up from the amount of the frenetic love tension

(Ponte)

B  Em        C  G
Mmmm you're my baby
         B           Em          C   G
And your sweet sweet sun makes me crazy
B  Em        C  G
Mmmm you're my baby
          B                Em           C    G
I want to lay you down and see how you amaze me

Refrão:

You push me up to the inglorious shadows of a craving
And if we fall we blow up like exponential assembly
I never thought that some training can stand your mind from behaving
Did you forget the joy you've reaped and all the times when we made it
We were the pink gold soldiers of the century of blissful
We were 1969
We were Jimmy and Janice
We are the prophets of the sails
We choose the way of dimension 
We are caught up from the amount of the frenetic love tension

(Ponte)

B  Em        C  G
Mmmm you're my baby
         B           Em          C   G
And your sweet sweet sun makes me crazy
B  Em        C  G
Mmmm you're my baby
          B                Em           C    G
I want to lay you down and see how you amaze me
Composición de Clemens Rehbein
Colaboración y revisión:
  • Tiago Paloschi
  • Don Aaron
409 vistas
    • ½ Tono
    • A
    • Bb
    • B
    • C
    • Db
    • D
    • Eb
    • E
    • F
    • F#
    • G
    • Ab
  • Agregar a la lista

    0 comentarios

    Ver todos los comentarios

    ¿Lograste tocar?

    4 Tocaron 0 Aún no

    ¡Graba un video tocando Sweet Sun y envíanoslo!

    00:00 / 00:00
    Otros videos de esta canción
    Repetir Calidad Automático
    Otros videos de esta canción
    00:00 / 00:00
    Automático
    OK