Cifra Club

Trendy winds

Millencolin

Cifrado: Principal (guitarra y guitarra eléctrica)
Selo Cifra Club: esta cifra foi revisada para atender aos critérios oficiais da nossa Equipe de Qualidade.
tono: Ab
Intro:(baixo)

G|----------------------------------------------|
D|----------------------------------------------| 2x
A|--3-3-3-3-3-3-3-3-3-3-3-1-1-1-1-1/6-6-6-6-6-6-|
E|----------------------------------------------|

Na segunda vez a guitarra entra:

E|---------------------------------|
B|---------------------------------|
G|--5-----5-----8-7-3-5------5-----|
D|--x-----x-----x-x-x-x------x-----|
A|--3-----3-----6-5-1-3------3-----|
E|---------------------------------|

Arraste a palheta nas cordas depois...
Obs.: Deixe soar todos os acordes.

Riff 1:
E|----------------------------|
B|----------------------------|
G|--12-12-8-8-10-10-12-12-----|
D|---x--x-x-x-x--x---x--x-----|
A|--10-10-6-6-8--8--10-10-----|
E|----------------------------|

Verso 1:
G#5, A#5, riff 1 (2 vezes)
G#5, A#5, G5, G#5, A#5

Refrão:

E|---------------------------|
B|---------------------------|
G|---------------------------|  2 vezes
D|--6-8-10----6----8----5----|
A|--6-8-10----6----8----5----|
E|--4-6--8----4----6----3----|

Ponte:
(Abafado)

E|-------------------------|
B|-------------------------|
G|-------------------------|    2 vezes
D|--6----------8-----------|
A|--6----------8-----------|
E|--4----------6-----------|
    16x        16x


Solo:

E|--------------------------------------------
B|--------------------------------------------
G|-------8---------------8--10b12-10--8-----8/
D|--8h10---10p8-10----12-----------------12---
A|--------------------------------------------
E|--------------------------------------------

E|--------------------------------------------
B|--------16(8x)-------------------------------
G|--15b17---(8x)----18b20--17br19--17/---------
D|---------------------------------------------
A|---------------------------------------------
E|---------------------------------------------

Riff 1.

Verso 3(só uma vez e sem o riff 1).

Refrão(2 vezes).

Ordem:

Intro.
Riff 1.
Verso 1.
Refrão.
Riff 1.
Verso 2.
Refrão.
Ponte.
Solo.
Riff 1.
Verso 3.
Refrão.
Otros videos de esta canción
    19 exhibiciones
    • Simplificar cifrado
      • ½ Tono
      • A
      • Bb
      • B
      • C
      • Db
      • D
      • Eb
      • E
      • F
      • F#
      • G
      • Ab
    • Agregar a la lista

    Afinação da cifra

    Afinador online

      Ops (: Contenido disponible solo en portugués.
      OK