Cifra Club

Aprenda

Bem Querer

Milton Nunes

Tablatura: Principal (guitarra)
tono: B
Intro:

    G#m7        E           B9          F#
E|-2-2-2-2-2-2-------------2-2-2-2-2------------
B|-------------5-4-5-4-5-4-----------7-7--------
G|-4-3-4-3-4-3-4-4-4-4-4-4-4-3-4-3-4-6-6--------
D|----------------------------------------------
A|----------------------------------------------
E|----------------------------------------------
        G#m7          E
Bem querer, faz isso não
          B9              F#
Um mal me quer, do meu coração
        G#m7           E
Bem querer, não faz assim 
         B9            F#
Bem me quer, cuida de mim
        G#m7
Te vejo em cada detalhe, tudo tem você 
     E
Meu amor, só queria te dizer
       C#m7       G#m7
Não me deixe só, não me deixe só 
 E                            F#
Se a gente tá junto o mundo é bem melhor

Refrão:
      B9
Meu amor, ainda sou todo seu
      E                  B9
Meu amor, sei também não me esqueceu
             C#m7       G#m7
Então não me deixe só, não me deixe só 
 E                            F#
Se a gente tá junto o mundo é bem melhor

Solo

Riffe (Entrando na segunda parte cantando)

    G#m7                         E
E|-------------4-6-7----7-6-----------
B|---------5-7--------------7---------
G|------------------------------------
D|------------------------------------
A|------------------------------------
E|------------------------------------

(Segundo Refrão sobe um tom "C#")
Colaboración y revision:
  • Milton Nunes
1 reproducciones
    • ½ Tono
    • A
    • Bb
    • B
    • C
    • Db
    • D
    • Eb
    • E
    • F
    • F#
    • G
    • Ab
  • Adicionar à lista

    0 comentarios

    Ver todos os comentários

    ¿Conseguiste tocar?

    0 Tocaram 0 Ainda não

    Grave um vídeo tocando Bem Querer e nos envie!

    00:00 / 00:00
    outros vídeos desta música
    repetir qualidade Automático
    Outros vídeos desta música
    00:00 / 00:00
    Automático
    OK