Cifra Club

Aprenda

Pense DVD 2014

Milton Nunes

Tablatura: Principal (guitarra)
tono: C
intro: G    F    G    F    G    F

G      F                    G
Não engane outra vez seu coração 
    F                  G
Talvez seja inútil dizer não
    F
O amor nunca responde com a razão, não, não
G      F
Vai, se quer seguir o seu caminho
G      F                          G
Sai, só não se esqueça que o tempo trai
    F
Não jogue fora quem te amou demais
                     G
Se é capaz, então vai
C                                   Am7
Pense, e vê se dessa vez não se arrepende
                             F
Quando me ver de novo frente à frente
                         G
Seus olhos vão tentar fugir
    C                               Am7
E Grita, que foi impulso coisa de momento
                          F
Que sem o meu amor morre por dentro
                         G                              F
Que é ilusão querer, fingir, não dá mais pra viver sem mim
(Repete)
Solo:
 F                   Am7        F
E|------------------------------------8-10h-12-12h-10-8-10----8--
B|-8h-10-10h-12-13--12-10-------8h-10----------------------10----
G|------------------------9-7-5----------------------------------
D|---------------------------------------------------------------
A|---------------------------------------------------------------
E|---------------------------------------------------------------
    Ab                            C
E|----------------------------------------------
B|-8s-9--9s-11--11s-13--13s-15---17-17----------
G|----------------------------------------------
D|----------------------------------------------
A|----------------------------------------------
E|----------------------------------------------
                                    Am7
E Grita, que foi impulso coisa de momento
                          F
Que sem o meu amor morre por dentro
                         G                              F       Am7       F
Que é ilusão querer, fingir, não dá mais pra viver sem mim...
Colaboración y revision:
  • Milton Nunes
1 reproducciones
    • ½ Tono
    • A
    • Bb
    • B
    • C
    • Db
    • D
    • Eb
    • E
    • F
    • F#
    • G
    • Ab
  • Adicionar à lista

    0 comentarios

    Ver todos os comentários

    ¿Conseguiste tocar?

    0 Tocaram 0 Ainda não

    Grave um vídeo tocando Pense DVD 2014 e nos envie!

    00:00 / 00:00
    outros vídeos desta música
    repetir qualidade Automático
    Outros vídeos desta música
    00:00 / 00:00
    Automático
    OK