Cifra Club

Aprenda

Tô Dentro

Milton Nunes

Tablatura: Principal (guitarra)
tono: G
Intro: Em9    C9    G    D9/F#

          Em9                              C9
Se for assim, tudo bem aceito as suas condições 
                             G
Sei que você tem motivos e razões
                        D9/F#
Afinal estamos juntos a tanto tempo
            Am7
Ah eu te conheço
                                    C9
Sei das suas manhas, sei do que tem medo
                                      G
Com um olhar desvendo todos os seu segredos
              D/F#
Como eu te conheço
                      Am7
Te quero tanto e você sabe
           C/G                       D
Estamos fechado, porque que a gente não se abre?

Refrão:
                   G
Pode marcar o casamento amor que eu to dentro
               Em7
A gente já tá junto a tanto tempo
                C                 Am7           D            C
Liga pra suas amigas, faz festa, avisa que a gente vai se casar
     D/F#          G
Pode marcar o casamento amor que eu to dentro
              Em7
A gente já tá junto a tanto tempo
                   C                        D/F#
Comprei nossas alianças e as passagens pra França
          G
Me espere no altar
Solo:
 D9                  G                           Em7
E|---------------------------------2h-3-3-2--------------------------
B|--------------1-3-3--3-3-3s-5-3-----------5-3-5-3-5-3-5-5s-7-5-----
G|-2h-4-4-4-4-4-------4-4--------------------------------------------
D|-------------------------------------------------------------------
A|-------------------------------------------------------------------
E|------------------------------------------------------------------- 
                 C              Am7              D9/F#
E|-5s-7-7-5-3-2-3-2-3-2-3-3s-5-3--2s-3-3-5-5s-7-7-5-5-2s-3-2------
B|-7s-8-8-7-5-3-5-3-5-3-5-5s-7-5--3s-5-5-7-7s-8-8-7-7-3s-5-3------
G|----------------------------------------------------------------
D|----------------------------------------------------------------
A|----------------------------------------------------------------
E|---------------------------------------------------------------- 
Volta: "ah eu te conheço..."; segundo refrão sobe meio tom (G#)
Colaboración y revision:
  • Milton Nunes
1 reproducciones
    • ½ Tono
    • A
    • Bb
    • B
    • C
    • Db
    • D
    • Eb
    • E
    • F
    • F#
    • G
    • Ab
  • Adicionar à lista

    0 comentarios

    Ver todos os comentários

    ¿Conseguiste tocar?

    0 Tocaram 0 Ainda não

    Grave um vídeo tocando Tô Dentro e nos envie!

    00:00 / 00:00
    outros vídeos desta música
    repetir qualidade Automático
    Outros vídeos desta música
    00:00 / 00:00
    Automático
    OK