Cifra Club

1989

Mindless Self Indulgence

Cifrado: Principal (guitarra y guitarra eléctrica)
Selo Cifra Club: esta cifra foi revisada para atender aos critérios oficiais da nossa Equipe de Qualidade.
tono: F#
Tuning: Drop D
Tabbed By: AnthonyFMiller

Intro (Keyboard)   0:00
e|-------|
B|-13-14-|
G|-------|
D|-------|
A|-------|
D|-------|

Verse   0:03,
e|---------------------------------------------------------------|
B|---------------------------------------------------------------|
G|---------------------------------------------------------------|
D|-8--8--8--8--8-8--8---7---6------8--8--8--8--8-8--8---7---6----|
A|-8--8--8--8--8-8--8---7---6------8--8--8--8--8-8--8---7---6----|
D|-8--8--8--8--8-8--8---7---6------8--8--8--8--8-8--8---7---6----|

Chorus   0:13,
e|------------------------------------------------------------------------------|
B|------------------------------------------------------------------------------|
G|------------------------------------------------------------------------------|
D|-8-8-8-8-8-8-8-8-106---3-3-3-3-3-5-6-6-6-6-6-7-8-8-8-8-8-10-11-11-11-11-11----|
A|-8-8-8-8-8-8-8-8-106---3-3-3-3-3-5-6-6-6-6-6-7-8-8-8-8-8-10-11-11-11-11-11----|
D|-8-8-8-8-8-8-8-8-106---3-3-3-3-3-5-6-6-6-6-6-7-8-8-8-8-8-10-11-11-11-11-11----|
   It's not your turn, it's not your turn yet.

   0:29
e|----------------------------------------------------------------------------|
B|----------------------------------------------------------------------------|
G|----------------------------------------------------------------------------|
D|-11----10----8--8--8-13--13--13--11----10----8------------------------------|
A|-11----10----8--8--8-13--13--13--11----10----8------------------------------|
D|-11----10----8--8--8-13--13--13--11----10----8------------------------------|
   My body's not even cold

Verse  0:37
e|---------------------------------------------------------------|
B|---------------------------------------------------------------|
G|---------------------------------------------------------------|
D|-8--8--8--8--8-8--8---7---6------8--8--8--8--8-8--8---7---6----|
A|-8--8--8--8--8-8--8---7---6------8--8--8--8--8-8--8---7---6----|
D|-8--8--8--8--8-8--8---7---6------8--8--8--8--8-8--8---7---6----|

Chorus   0:47
e|------------------------------------------------------------------------------|
B|------------------------------------------------------------------------------|
G|------------------------------------------------------------------------------|
D|-8-8-8-8-8-8-8-8-106---3-3-3-3-3-5-6-6-6-6-6-7-8-8-8-8-8-10-11-11-11-11-11----|
A|-8-8-8-8-8-8-8-8-106---3-3-3-3-3-5-6-6-6-6-6-7-8-8-8-8-8-10-11-11-11-11-11----|
D|-8-8-8-8-8-8-8-8-106---3-3-3-3-3-5-6-6-6-6-6-7-8-8-8-8-8-10-11-11-11-11-11----|
   It's not your turn, it's not your turn yet.

   1:02
e|----------------------------------------------------------------------------|
B|----------------------------------------------------------------------------|
G|----------------------------------------------------------------------------|
D|-11----10----8--8--8-13--13--13--11----10----8------------------------------|
A|-11----10----8--8--8-13--13--13--11----10----8------------------------------|
D|-11----10----8--8--8-13--13--13--11----10----8------------------------------|
   My body's not even cold

   1:10                   *Hold
e|----------------------------------------------------------------------------|
B|----------------------------------------------------------------------------|
G|------------------------*--------------------*------------------------------|
D|-3--3-3-4--4-4-6--6-6-6-6------3--3-3-4--4-4-6------------------------------|
A|-3--3-3-4--4-4-6--6-6-6-6------3--3-3-4--4-4-6------------------------------|
D|-3--3-3-4--4-4-6--6-6-6-6------3--3-3-4--4-4-6------------------------------|2X
   Some babies wanna get down like this

   1:32
e|-----------------------------------------------------|
B|-----------------------------------------------------|
G|-----------------------------------------------------|
D|-3-3-3-3-3-5-6-6-6-6-6-7-8-8-8-8-8-10-11-11-11-11-11-|
A|-3-3-3-3-3-5-6-6-6-6-6-7-8-8-8-8-8-10-11-11-11-11-11-|
D|-3-3-3-3-3-5-6-6-6-6-6-7-8-8-8-8-8-10-11-11-11-11-11-|2X
   Back off you little shits

   1:43                                        *Hold
e|----------------------------------------------------------------------------|
B|----------------------------------------------------------------------------|
G|---------------------------------------------*------------------------------|
D|-11----10----8--8--8-13--13--13--11----10----8------------------------------|
A|-11----10----8--8--8-13--13--13--11----10----8------------------------------|
D|-11----10----8--8--8-13--13--13--11----10----8------------------------------|2X
   My body's not even cold


Rock my white shoes polo tie
The next big thing for 5 years running

It's not your turn
It's not your turn....yet

Back off you little shits
Gnawing at my fists
I see they breed you by the boatload

Back off you little hoes
Get em all onboard
And let me beat you to the fucking punch

My body's not even cold
My act is just getting old

Rock my white shoes polo tie
The next big thing for 5 years running

It's not your turn
It's not your turn....yet

Back off you little shits
Gnawing at my fists
I see they breed you by the boatload

Back off you little hoes
Get em all onboard
And let me beat you to the fucking punch

My body's not even cold
My act is just getting old

Some babies wanna get down like this
We eat what we like

Some babies wanna get down like this
We eat what we like
Back off you little shits
Gnawing at my fists
I see they breed you by the boatload

Back off you little hoes
Get em all onboard
And let me beat you to the fucking punch

My body's not even cold
My act is just getting old
Otros videos de esta canción
    35 exhibiciones
      • ½ Tono
      • A
      • Bb
      • B
      • C
      • Db
      • D
      • Eb
      • E
      • F
      • F#
      • G
      • Ab
    • Agregar a la lista

    Afinação da cifra

    Afinador online

      Ops (: Contenido disponible solo en portugués.
      OK