Cifra Club

Bed Of Roses

Mindless Self Indulgence

Cifrado: Principal (guitarra y guitarra eléctrica)
tono: A
Good song.


0:32
Hey, it's alright my life...
e|---------------------------------------------|
B|---------------------------------------------|
G|-7-7-7-7-7---7-7-7-7-7---6-6-6-6---6-6-6-6---|
D|-7-7-7-7-7---7-7-7-7-7---7-7-7-7---7-7-7-7---|
A|-5-5-5-5-5---5-5-5-5-5---7-7-7-7---7-7-7-7---|
E|-5-5-5-5-5---5-5-5-5-5---5-5-5-5---5-5-5-5---|

Don't feel sorry for me...
e|----------------------------------------------|
B|----------------------------------------------|
G|-7-7-7-7-7---7-7-7-7-7---6-6-6-6-xx-6-6-6-6---|
D|-7-7-7-7-7---7-7-7-7-7---7-7-7-7-xx-7-7-7-7---|
A|-5-5-5-5-5---5-5-5-5-5---7-7-7-7-xx-7-7-7-7---|
E|-5-5-5-5-5---5-5-5-5-5---5-5-5-5-xx-5-5-5-5---|

Hey, it's alright my life...
e|---------------------------------------------|
B|---------------------------------------------|
G|-7-7-7-7-7---7-7-7-7-7---6-6-6-6---6-6-6-6---|
D|-7-7-7-7-7---7-7-7-7-7---7-7-7-7---7-7-7-7---|
A|-5-5-5-5-5---5-5-5-5-5---7-7-7-7---7-7-7-7---|
E|-5-5-5-5-5---5-5-5-5-5---5-5-5-5---5-5-5-5---|

Don't feel sorry for me...
e|----------------------------------------------|
B|----------------------------------------------|
G|-7-7-7-7-7---7-7-7-7-7---6-6-6-6-xx-6-6-6-6---|
D|-7-7-7-7-7---7-7-7-7-7---7-7-7-7-xx-7-7-7-7---|
A|-5-5-5-5-5---5-5-5-5-5---7-7-7-7-xx-7-7-7-7---|
E|-5-5-5-5-5---5-5-5-5-5---5-5-5-5-xx-5-5-5-5---|

1:24
e|-------------------------------------------------------------|
B|-------------------------------------------------------------|
G|-6-6-6-6-6-xx-6-6-6-6-6-xx-6-6-6-6-6-xx-6~6~6~6~6~6~6~6~6~6~-|
D|-7-7-7-7-7-xx-7-7-7-7-7-xx-7-7-7-7-7-xx-7~7~7~7~7~7~7~7~7~7~-|
A|-7-7-7-7-7-xx-7-7-7-7-7-xx-7-7-7-7-5-xx-7~7~7~7~7~7~7~7~7~7~-|
E|-5-5-5-5-5-xx-5-5-5-5-5-xx-5-5-5-5-5-xx-5~5~5~5~5~5~5~5~5~5~-|
                                          ^bend this slowly to the next
                                           Higher note.

1:34
e|-------------------------------------------------|
B|-------------------------------------------------|
G|-5-5-5-5-5-xx-8-8-8-8-8-xx-3-3-3-3-3-xx-5-7--4-6-|
D|-6-6-6-6-6-xx-9-9-9-9-9-xx-4-4-4-4-4-xx-6-8--5-7-|
A|-6-6-6-6-6-xx-9-9-9-9-9-xx-4-4-4-4-4-xx-6-8--5-7-|
E|-4-4-4-4-4-xx-7-7-7-7-7-xx-2-2-2-2-2-xx-4-6--3-5-| x6

2:35
e|------------------------------------------------|
B|------------------------------------------------|
G|-7-7-7-7-7-xx-10-10-10-10-10-xx-5-7-7-7-7-7-7-7-|
D|-8-8-8-8-8-xx-11-11-11-11-11-xx-6-8-8-8-8-8-8-8-|
A|-8-8-8-8-8-xx-11-11-11-11-11-xx-6-8-8-8-8-8-8-8-|
E|-6-6-6-6-6-xx-9--9--9--9--9--xx-4-6-6-6-6-6-6-6-|x4

3:12
e|------------------------------------------------|
B|------------------------------------------------|
G|-7-7-7-7-7-xx-10-10-10-10-10-xx-5-7-7-7-7-7-7-7-|
D|-8-8-8-8-8-xx-11-11-11-11-11-xx-6-8-8-8-8-8-8-8-|
A|-8-8-8-8-8-xx-11-11-11-11-11-xx-6-8-8-8-8-8-8-8-|
E|-6-6-6-6-6-xx-9--9--9--9--9--xx-4-6-6-6-6-6-6-6-|x4
Compositor não encontrado.
15 vistas
    • ½ Tono
    • A
    • Bb
    • B
    • C
    • Db
    • D
    • Eb
    • E
    • F
    • F#
    • G
    • Ab
  • Agregar a la lista

    0 comentarios

    Ver todos los comentarios

    ¿Lograste tocar?

    0 Tocaron 0 Aún no

    ¡Graba un video tocando Bed Of Roses y envíanoslo!

    00:00 / 00:00
    Outros vídeos desta música
    Repetir Calidad Automático
    Outros vídeos desta música
    00:00 / 00:00
    Automático
    OK