Cifra Club

Daddy

Mindless Self Indulgence

Cifrado: Principal (guitarra y guitarra eléctrica)
Selo Cifra Club: esta cifra foi revisada para atender aos critérios oficiais da nossa Equipe de Qualidade.
tono: F#m
E|---------------------------------------------------------------------------|
B|---------------------------------------------------------------------------|
G|---------------------------------------------------------------------------|
D|-------------4-2-----------------------------------------------------------|
A|---3-3-3--------------------(3x)-------------------------------------------|
E|---------------------------------------------------------------------------|

[Verse 1]
E|---------------------------------------------------------------------------|
B|---------------------------------------------------------------------------|
G|---------------------------------------------------------------------------|
D|---------------------------------------------------------------------------|
A|----3-3-3-----4-3-3-3-------4-3-4------------------------------------------|
E|---------------------------------------------------------------------------|
 
[Chorus]
E|---------------------------------------------------------------------------|
B|---------------------------------------------------------------------------|
G|---------------------------------------------------------------------------|
D|---------------------------------------------------------------------------|
A|---3h-4h-3h---4-4-4-4-4----------------------------------------------------|
E|---------------------------------------------------------------------------|
 
[Verse 2]
E|---------------------------------------------------------------------------|
B|---------------------------------------------------------------------------|
G|---------------------------------------------------------------------------|
D|---------------------------------------------------------------------------|
A|---3-3-3---4-3-3-----------------------------------------------------------|
E|---------------------------------------------------------------------------|

[Chorus]
E|---------------------------------------------------------------------------|
B|---------------------------------------------------------------------------|
G|---------------------------------------------------------------------------|
D|---------------------------------------------------------------------------|
A|-3h--4444444----(x2)--PM---------------------------------------------------|
E|---------------------------------------------------------------------------|
 
[Verse 3]
E|---------------------------------------------------------------------------|
B|---------------------------------------------------------------------------|
G|---------------------------------------------------------------------------|
D|---------------------------------------------------------------------------|
A|-3-3-3--4-3-3---4-3-4------------------------------------------------------|
E|---------------------------------------------------------------------------|

[Chorus]
E|---------------------------------------------------------------------------|
B|---------------------------------------------------------------------------|
G|---------------------------------------------------------------------------|
D|-----------------------3~--------------------------------------------------|
A|---3h-4h-3h----3~--5~------------------------------------------------------|
E|---------------------------------------------------------------------------|

[Outro]
E|---------------------------------------------------------------------------|
B|---------------------------------------------------------------------------|
G|---------------------------------------------------------------------------|
D|---------------------------------------------------------------------------|
A|-3-3-3--4-3-3---4-3-4------------------------------------------------------|
E|---------------------------------------------------------------------------|

E|---------------------------------------------------------------------------|
B|---------------------------------------------------------------------------|
G|---------------------------------------------------------------------------|
D|---------------------------------------------------------------------------|
A|---3h-4h-3h---4-4-4-4------------------------------------------------------|
E|---------------------------------------------------------------------------|

E|---------------------------------------------------------------------------|
B|---------------------------------------------------------------------------|
G|---------------------------------------------------------------------------|
D|---------------------------------------------------------------------------|
A|----3-3-3---4-3-3-3----4-3-4-3---------------------------------------------|
E|---------------------------------------------------------------------------|
Otros videos de esta canción
    4 exhibiciones
      • ½ Tono
      • Am
      • Bbm
      • Bm
      • Cm
      • C#m
      • Dm
      • Ebm
      • Em
      • Fm
      • F#m
      • Gm
      • G#m
    • Agregar a la lista

    Afinação da cifra

    Afinador online

      Ops (: Contenido disponible solo en portugués.
      OK