Cifra Club

For The Love Of God

Mindless Self Indulgence

Cifrado: Principal (guitarra y guitarra eléctrica)
Selo Cifra Club: esta cifra foi revisada para atender aos critérios oficiais da nossa Equipe de Qualidade.
tono: A
[Intro (Bass)]
E|-------------------------|
B|-------------------------|
G|-------------------------|
D|-6-----5---------7-------|
A|-6-----5---------7-------|
E|-4-----3---------5-------|
 
[Verse 1]
E|-------------------------|
B|-------------------------|
G|-------------------------|
D|-6-----5---------7-------|
A|-6-----5---------7-------|
E|-4-----3---------5-------|
   I was doing just fine...

[Verse 2]
E|-------------------------|
B|-------------------------|
G|-------------------------|
D|-6-----9-----8-----7-----|
A|-6(x4)-9(x4)-8(x4)-7(x4)-|
E|-4-----7-----6-----5-----|
   Sweet re -  li -  gon 

[Verse 1]
E|-------------------------|
B|-------------------------|
G|-------------------------|
D|-6-----5---------7-------|
A|-6-----5---------7-------|
E|-4-----3---------5-------|
   My... is..    so  weak

[Verse 2]
E|-------------------------|
B|-------------------------|
G|-------------------------|
D|-6-----9-----8-----7-----|
A|-6(x4)-9(x4)-8(x4)-7(x4)-|
E|-4-----7-----6-----5-----|
   Sweet re -  li -  gon 

[Chorus]
E|-------------------------|
B|-------------------------|
G|-------------------------|
D|-6-------7---------------|
A|-6(x13)--7---------------|
E|-4-------5---------------|

[Outro (Bass)]
E|-------------------------|
B|-------------------------|
G|-------------------------|
D|-6-----7---------5-------|
A|-6-----7---------5-------|
E|-4-----5---------3-------|
Otros videos de esta canción
    11 exhibiciones
      • ½ Tono
      • A
      • Bb
      • B
      • C
      • Db
      • D
      • Eb
      • E
      • F
      • F#
      • G
      • Ab
    • Agregar a la lista

    Afinação da cifra

    Afinador online

      Ops (: Contenido disponible solo en portugués.
      OK