Cifra Club

Golden I

Mindless Self Indulgence

Cifrado: Principal (guitarra y guitarra eléctrica)
Selo Cifra Club: esta cifra foi revisada para atender aos critérios oficiais da nossa Equipe de Qualidade.
tono: D
E|-----------------|-----------------|-----------------|-----------------|
B|-----------------|-----------------|-----------------|-----------------|
G|-----------------|-----------------|-----------------|-----------------|
D|-6-6-6-6-6-6-6-6-|-3-3-3-3-3-3-3-3-|-3-3-3-3-3---3---|-3-3-3-3-4-4-4-4-|
A|-6-6-6-6-6-6-6-6-|-3-3-3-3-3-3-3-3-|-3-3-3-3-3---3---|-3-3-3-3-4-4-4-4-|
E|-4-4-4-4-4-4-4-4-|-1-1-1-1-1-1-1-1-|-1-1-1-1-1---1---|-1-1-1-1-2-2-2-2-|

Part after the first Chorus:
E|--------------------------|--------------------------|
B|--------------------------|--------------------------|
G|--------------------------|--------------------------|
D|--------------------------|--------------------------|
A|-6-----9--------8-----8---|----------------8-----8---|
E|--------------------------|-8-----11-----------------|

Part after the Second Chorus:   

Guitar 1:                                                _
E|--------------------------|--------------------------| |
B|--------------------------|--------------------------| |
G|--------------------------|--------------------------| |
D|-8--8--8--8--8--8--8--8---|-10-10-10-10-10-10-10-10--| |
A|--------------------------|--------------------------| |
E|--------------------------|--------------------------| |
E|--(x2)|
B|--------------------------|--------------------------| |
G|--------------------------|--------------------------| |
D|--------------------------|--------------------------| |
A|--------------------------|--------------------------| |
E|--------------------------|--------------------------| |
E|--------------------------|--------------------------| _|

Guitar 2:
E|--------------------------|--------------------------|
B|-----9------------9---10--|-----9------------9---10--|
G|-8-------10---------------|-8-------10---------------|
D|--------------------------|--------------------------|
A|--------------------------|--------------------------|
E|--------------------------|--------------------------|

E|--------------------------|--------------------------|
B|-----9------------9---10--|-----9--------------------|
G|-8-------10---------------|-8-------10-------11------|
D|--------------------------|--------------------------|
A|--------------------------|--------------------------|
E|--------------------------|--------------------------|


[Bridge]

E|--------------------------|--------------------------|
B|------9---------9----10---|------9---------9----10---|
G|-8----8----10---8----9----|-8----8----10---8----9----|
D|-8----6----10---6----8----|-8----6----10---6----8----|
A|-6---------8--------------|-6---------8--------------|
E|--------------------------|--------------------------| (x2)

E|--------------------------|--------------------------|
B|--------------------------|--------------------------|
G|-8~~~~~~~~~~~~~~~~~~~~~~~-|--------------------------|
D|-8~~~~~~~~~~~~~~~~~~~~~~~-|-8~~~~~~~~~~~~~~~~~~~~~~~-|
A|-6~~~~~~~~~~~~~~~~~~~~~~~-|-8~~~~~~~~~~~~~~~~~~~~~~~-|
E|--------------------------|-6~~~~~~~~~~~~~~~~~~~~~~~-| (x4)
Otros videos de esta canción
    9 exhibiciones
      • ½ Tono
      • A
      • Bb
      • B
      • C
      • Db
      • D
      • Eb
      • E
      • F
      • F#
      • G
      • Ab
    • Agregar a la lista

    Afinação da cifra

    Afinador online

      Ops (: Contenido disponible solo en portugués.
      OK