Cifra Club

Kill The Rock

Mindless Self Indulgence

Cifrado: Principal (guitarra y guitarra eléctrica)
Selo Cifra Club: esta cifra foi revisada para atender aos critérios oficiais da nossa Equipe de Qualidade.
tono: C

Submitted By: MonkeyManmsifan
EMail: K*

Tuning: Standard (E A D G B E)

This is a good song, some of it doesn't SOUND 
right without the music but it is!

Intro/Verse:
E|------------------------------------------------||
B|------------------------------------------------||
G|-------14----14----14----------10----10----10---||
D|----14----14----14----14----10----10----10----10||
A|-12-----------------------8---------------------||
E|------------------------------------------------||

Intro/Verse Continued:

E|------------------------------||
B|------------------------------||
G|------------------------------||
D|------10----10----10-----8-7--||
A|---10----10----10----10--8-7--||
E|-8-----------------------6-5--||

Chorus:
Yo, Yo, Yo, Yo, Yo, Yo, Yo I Killed The Rock...
E|------------------------||
B|-------17-18------------||
G|-18-19-------18-18-18---||
D|------------------------||
A|------------------------||
E|------------------------||
*The other bits in there are Keyboard or something else, I don't know!

Nothing Hurts Anymore...
E|-------------------------------------||
B|-------------------------------------||
G|-------------------------------------||
D|-7-7-7-7--5-5-5-5--2-2-2-2--5-5-5-5--||
A|-7-7-7-7--5-5-5-5--2-2-2-2--5-5-5-5--||
E|-5-5-5-5--3-3-3-3--0-0-0-0--3-3-3-3--||

FIN
Otros videos de esta canción
    41 exhibiciones
      • ½ Tono
      • A
      • Bb
      • B
      • C
      • Db
      • D
      • Eb
      • E
      • F
      • F#
      • G
      • Ab
    • Agregar a la lista

    Afinação da cifra

    Afinador online

      Ops (: Contenido disponible solo en portugués.
      OK