Cifra Club

Like Shit

Mindless Self Indulgence

Cifrado: Principal (guitarra y guitarra eléctrica)
Selo Cifra Club: esta cifra foi revisada para atender aos critérios oficiais da nossa Equipe de Qualidade.
tono: E
E|----------------------|
B|----------------------|
G|--------9--9-9-6--6-6-|
D|-6--6-6-9--9-9-6--6-6-| x4
A|-6--6-6-7--7-7-4--4-4-|
E|-4--4-4---------------|


[Verse 2: 0:12-0:26] 
                                                No guitar on "La-di-da-di" or "ooh"
E|---------------------------------------------------------------------------|
B|---------------------------------------------------------------------------|
G|-5-5-5-5-5-5-5-5-6-6-6-6-6-6-6-6-8-8-8-8-8-8-8-8---------------------------|
D|-5-5-5-5-5-5-5-5-6-6-6-6-6-6-6-6-8-8-8-8-8-8-8-8---------------------------| x3
A|-3-3-3-3-3-3-3-3-4-4-4-4-4-4-4-4-6-6-6-6-6-6-6-6---------------------------|
E|---------------------------------------------------------------------------|

(No guitar from 0:26-0:47)

[Verse 3: 0:47-0:57]

E|----------------------|
B|----------------------|
G|--------9--9-9-6--6-6-|
D|-6--6-6-9--9-9-6--6-6-| x4
A|-6--6-6-7--7-7-4--4-4-|
E|-4--4-4---------------|


[Verse 4: 0:57-1:12] 
                                                No guitar on "La-di-da-di" or "ooh touch it-"
E|---------------------------------------------------------------------------|
B|---------------------------------------------------------------------------|
G|-5-5-5-5-5-5-5-5-6-6-6-6-6-6-6-6-8-8-8-8-8-8-8-8---------------------------|
D|-5-5-5-5-5-5-5-5-6-6-6-6-6-6-6-6-8-8-8-8-8-8-8-8---------------------------| x3
A|-3-3-3-3-3-3-3-3-4-4-4-4-4-4-4-4-6-6-6-6-6-6-6-6---------------------------|
E|---------------------------------------------------------------------------|



(No guitar from 1:12-1:37)


[Breakdown: 1:37-1:42 & 1:47-1:52]

You only play this on the line "I'm the most I suppose, you couldn't possibly butter my toast"

E|----------------------------|
B|----------------------------|
G|----------------------------|
D|-7---7--6---6--7---7--6---6-|
A|---7------6------7------6---|
E|----------------------------|



[Verse 5: 1:52-2:01]

E|----------------------|
B|----------------------|
G|--------9--9-9-6--6-6-|
D|-6--6-6-9--9-9-6--6-6-| x4
A|-6--6-6-7--7-7-4--4-4-|
E|-4--4-4---------------|

(2 second break before outro)

[Outro: 2:03-2:13]

E|----------------------|
B|----------------------|
G|--------9--9-9-6--6-6-|
D|-6--6-6-9--9-9-6--6-6-| x4
A|-6--6-6-7--7-7-4--4-4-|
E|-4--4-4---------------|
Otros videos de esta canción
    0 exhibiciones
      • ½ Tono
      • A
      • Bb
      • B
      • C
      • Db
      • D
      • Eb
      • E
      • F
      • F#
      • G
      • Ab
    • Agregar a la lista

    Afinação da cifra

    Afinador online

      Ops (: Contenido disponible solo en portugués.
      OK