Cifra Club

On It

Mindless Self Indulgence

Cifrado: Principal (guitarra y guitarra eléctrica)
Selo Cifra Club: esta cifra foi revisada para atender aos critérios oficiais da nossa Equipe de Qualidade.
tono: Db
[Verse]
E|---------------------------------|---------------------------------|
B|---------------------------------|---------------------------------|
G|---------------------------------|---------------------------------|
D|-8-------------------------------|---------------------------------|
A|-8-------------------------------|---------------------------------|
E|-8-------------------------------|---------------------------------|

E|---------------------------------|---------------------------------|
B|---------------------------------|---------------------------------|
G|---------------------------------|---------------------------------|
D|-8-------------------------------|---------------------------------|
A|-8-------------------------------|---------------------------------|
E|-8-------------------------------|---------------------------------|

E|---------------------------------|---------------------------------|
B|---------------------------------|---------------------------------|
G|-----------------11--11--11--13--|-----------------11--11--11--13--|
D|-8---8---8---8---11--11--11--13--|-11--11--11--11--11--11--11--13--|
A|-8---8---8---8---9---9---9---11--|-11--11--11--11--9---9---9---11--|
E|-8---8---8---8-------------------|-11--11--11--11------------------|

E|---------------------------------|---------------------------------|
B|---------------------------------|---------------------------------|
G|-----------------11--11--11--13--|-----------------11--11--11--13--|
D|-8---8---8---8---11--11--11--13--|-11--11--11--11--11--11--11--13--|
A|-8---8---8---8---9---9---9---11--|-11--11--11--11--9---9---9---11--|
E|-8---8---8---8-------------------|-11--11--11--11------------------|

[Chorus]
E|---------------------------------|---------------------------------|
B|---------------------------------|---------------------------------|
G|---------------------------------|---------------------------------|
D|-8---8---8---8-------------------|-11--11--11--11------------------|
A|-8---8---8---8-------------------|-11--11--11--11------------------|
E|-8---8---8---8-------------------|-11--11--11--11------------------|

E|---------------------------------|---------------------------------|
B|---------------------------------|---------------------------------|
G|---------------------------------|---------------------------------|
D|-8---8---8---8-------------------|-11--11--11--11------------------|
A|-8---8---8---8-------------------|-11--11--11--11------------------|
E|-8---8---8---8-------------------|-11--11--11--11------------------|

E|---------------------------------|---------------------------------|
B|---------------------------------|---------------------------------|
G|---------------------11--11--13--|---------------------11--11--13--|
D|-----8---8---8-------11--11--13--|-----11--11--11------11--11--13--|
A|-----8---8---8-------9---9---11--|-----11--11--11------9---9---11--|
E|-----8---8---8-------------------|-----11--11--11------------------|

E|---------------------------------|---------------------------------|
B|---------------------------------|---------------------------------|
G|---------------------11--11--13--|---------------------11--11--13--|
D|-----8---8---8-------11--11--13--|-----11--11--11------11--11--13--|
A|-----8---8---8-------9---9---11--|-----11--11--11------9---9---11--|
E|-----8---8---8-------------------|-----11--11--11------------------|

E|---------------------------------|---------------------------------|
B|---------------------------------|---------------------------------|
G|---------------------------------|---------------------------------|
D|-8---8---8-----------------------|-11--11--11----------------------|
A|-8---8---8-----------------------|-11--11--11----------------------|
E|-8---8---8-----------------------|-11--11--11----------------------|

E|---------------------------------|---------------------------------|
B|---------------------------------|---------------------------------|
G|---------------------------------|---------------------------------|
D|-8---8---8-----------------------|---------------------------------|
A|-8---8---8-----------------------|---------------------------------|
E|-8---8---8-----------------------|---------------------------------|

E|---------------------------------|---------------------------------|
B|---------------------------------|---------------------------------|
G|---------------------------------|---------------------------------|
D|-8---8---8-----------------------|---------------------------------|
A|-8---8---8-----------------------|---------------------------------|
E|-8---8---8-----------------------|---------------------------------|

[Verse]
E|---------------------------------|---------------------------------|
B|---------------------------------|---------------------------------|
G|---------------------------------|---------------------------------|
D|-8-------------------------------|---------------------------------|
A|-8-------------------------------|---------------------------------|
E|-8-------------------------------|---------------------------------|

E|---------------------------------|---------------------------------|
B|---------------------------------|---------------------------------|
G|---------------------------------|---------------------------------|
D|-8-------------------------------|---------------------------------|
A|-8-------------------------------|---------------------------------|
E|-8-------------------------------|---------------------------------|

E|---------------------------------|---------------------------------|
B|---------------------------------|---------------------------------|
G|-----------------11--11--11--13--|-----------------11--11--11--13--|
D|-8---8---8---8---11--11--11--13--|-11--11--11--11--11--11--11--13--|
A|-8---8---8---8---9---9---9---11--|-11--11--11--11--9---9---9---11--|
E|-8---8---8---8-------------------|-11--11--11--11------------------|

E|---------------------------------|---------------------------------|
B|---------------------------------|---------------------------------|
G|-----------------11--11--11--13--|-----------------11--11--11--13--|
D|-8---8---8---8---11--11--11--13--|-11--11--11--11--11--11--11--13--|
A|-8---8---8---8---9---9---9---11--|-11--11--11--11--9---9---9---11--|
E|-8---8---8---8-------------------|-11--11--11--11------------------|

[Chorus]
E|---------------------------------|---------------------------------|
B|---------------------------------|---------------------------------|
G|---------------------------------|---------------------------------|
D|-8---8---8---8-------------------|-11--11--11--11------------------|
A|-8---8---8---8-------------------|-11--11--11--11------------------|
E|-8---8---8---8-------------------|-11--11--11--11------------------|

E|---------------------------------|---------------------------------|
B|---------------------------------|---------------------------------|
G|---------------------------------|---------------------------------|
D|-8---8---8---8-------------------|-11--11--11--11------------------|
A|-8---8---8---8-------------------|-11--11--11--11------------------|
E|-8---8---8---8-------------------|-11--11--11--11------------------|

E|---------------------------------|---------------------------------|
B|---------------------------------|---------------------------------|
G|---------------------11--11--13--|---------------------11--11--13--|
D|-----8---8---8-------11--11--13--|-----11--11--11------11--11--13--|
A|-----8---8---8-------9---9---11--|-----11--11--11------9---9---11--|
E|-----8---8---8-------------------|-----11--11--11------------------|

E|---------------------------------|---------------------------------|
B|---------------------------------|---------------------------------|
G|---------------------11--11--13--|---------------------11--11--13--|
D|-----8---8---8-------11--11--13--|-----11--11--11------11--11--13--|
A|-----8---8---8-------9---9---11--|-----11--11--11------9---9---11--|
E|-----8---8---8-------------------|-----11--11--11------------------|

E|---------------------------------|---------------------------------|
B|---------------------------------|---------------------------------|
G|---------------------------------|---------------------------------|
D|-8---8---8-----------------------|-11--11--11----------------------|
A|-8---8---8-----------------------|-11--11--11----------------------|
E|-8---8---8-----------------------|-11--11--11----------------------|

E|---------------------------------|---------------------------------|
B|---------------------------------|---------------------------------|
G|---------------------------------|---------------------------------|
D|-8---8---8-----------------------|-11--11--11----------------------|
A|-8---8---8-----------------------|-11--11--11----------------------|
E|-8---8---8-----------------------|-11--11--11----------------------|

E|---------------------------------|---------------------------------|
B|---------------------------------|---------------------------------|
G|---------------------------------|---------------------------------|
D|-8---8---8-----------------------|-11--11--11----------------------|
A|-8---8---8-----------------------|-11--11--11----------------------|
E|-8---8---8-----------------------|-11--11--11----------------------|

E|---------------------------------|---------------------------------|
B|---------------------------------|---------------------------------|
G|---------------------------------|---------------------------------|
D|-8---8---8-----------------------|-11--11--11----------------------|
A|-8---8---8-----------------------|-11--11--11----------------------|
E|-8---8---8-----------------------|-11--11--11----------------------|

E|---------------------------------|---------------------------------|
B|---------------------------------|---------------------------------|
G|---------------------------------|---------------------------------|
D|-8---8---8-----------------------|---------------------------------|
A|-8---8---8-----------------------|---------------------------------|
E|-8---8---8-----------------------|---------------------------------|

E|---------------------------------|---------------------------------|
B|---------------------------------|---------------------------------|
G|---------------------------------|---------------------------------|
D|-8---8---8-----------------------|---------------------------------|
A|-8---8---8-----------------------|---------------------------------|
E|-8---8---8-----------------------|---------------------------------|

[Bridge]
E|---------------------------------|---------------------------------|
B|---------------------------------|---------------------------------|
G|---------------------------------|---------------------------------|
D|-4-------------------------------|-1---------------6---6---6---6---|
A|-4-------------------------------|-1---------------6---6---6---6---|
E|-4-------------------------------|-1---------------6---6---6---6---|

E|---------------------------------|---------------------------------|
B|---------------------------------|---------------------------------|
G|---------------------------------|---------------------------------|
D|-4-------------------------------|-1---------------6---6---6---6---|
A|-4-------------------------------|-1---------------6---6---6---6---|
E|-4-------------------------------|-1---------------6---6---6---6---|

E|---------------------------------|---------------------------------|
B|---------------------------------|---------------------------------|
G|---------------------------------|---------------------------------|
D|-4-------------------------------|-1---------------6---6---6---6---|
A|-4-------------------------------|-1---------------6---6---6---6---|
E|-4-------------------------------|-1---------------6---6---6---6---|

E|---------------------------------|---------------------------------|
B|---------------------------------|---------------------------------|
G|---------------------------------|---------------------------------|
D|-4-------------------------------|-1---------------6---6---6---6---|
A|-4-------------------------------|-1---------------6---6---6---6---|
E|-4-------------------------------|-1---------------6---6---6---6---|

E|---------------------------------|---------------------------------|
B|---------------------------------|---------------------------------|
G|---------------------------------|---------------------------------|
D|-8---8---8-----------------------|---------------------------------|
A|-8---8---8-----------------------|---------------------------------|
E|-8---8---8-----------------------|---------------------------------|

E|---------------------------------|---------------------------------|
B|---------------------------------|---------------------------------|
G|---------------------------------|---------------------------------|
D|-8---8---8-----------------------|---------------------------------|
A|-8---8---8-----------------------|---------------------------------|
E|-8---8---8-----------------------|---------------------------------|

E|---------------------------------|---------------------------------|
B|---------------------------------|---------------------------------|
G|-----------------11--11--11--13--|-----------------11--11--11--13--|
D|-8---8---8---8---11--11--11--13--|-11--11--11--11--11--11--11--13--|
A|-8---8---8---8---9---9---9---11--|-11--11--11--11--9---9---9---11--|
E|-8---8---8---8-------------------|-11--11--11--11------------------|

E|---------------------------------|---------------------------------|
B|---------------------------------|---------------------------------|
G|-----------------11--11--11--13--|-----------------11--11--11--13--|
D|-8---8---8---8---11--11--11--13--|-11--11--11--11--11--11--11--13--|
A|-8---8---8---8---9---9---9---11--|-11--11--11--11--9---9---9---11--|
E|-8---8---8---8-------------------|-11--11--11--11------------------|

[Chorus]
E|---------------------------------|---------------------------------|
B|---------------------------------|---------------------------------|
G|---------------------------------|---------------------------------|
D|-8---8---8---8-------------------|-11--11--11--11------------------|
A|-8---8---8---8-------------------|-11--11--11--11------------------|
E|-8---8---8---8-------------------|-11--11--11--11------------------|

E|---------------------------------|---------------------------------|
B|---------------------------------|---------------------------------|
G|---------------------------------|---------------------------------|
D|-8---8---8---8-------------------|-11--11--11--11------------------|
A|-8---8---8---8-------------------|-11--11--11--11------------------|
E|-8---8---8---8-------------------|-11--11--11--11------------------|

E|---------------------------------|---------------------------------|
B|---------------------------------|---------------------------------|
G|---------------------11--11--13--|---------------------11--11--13--|
D|-----8---8---8-------11--11--13--|-----11--11--11------11--11--13--|
A|-----8---8---8-------9---9---11--|-----11--11--11------9---9---11--|
E|-----8---8---8-------------------|-----11--11--11------------------|

E|---------------------------------|---------------------------------|
B|---------------------------------|---------------------------------|
G|---------------------11--11--13--|---------------------11--11--13--|
D|-----8---8---8-------11--11--13--|-----11--11--11------11--11--13--|
A|-----8---8---8-------9---9---11--|-----11--11--11------9---9---11--|
E|-----8---8---8-------------------|-----11--11--11------------------|

E|---------------------------------|---------------------------------|
B|---------------------------------|---------------------------------|
G|---------------------------------|---------------------------------|
D|-8---8---8-----------------------|-11--11--11----------------------|
A|-8---8---8-----------------------|-11--11--11----------------------|
E|-8---8---8-----------------------|-11--11--11----------------------|

E|---------------------------------|---------------------------------|
B|---------------------------------|---------------------------------|
G|---------------------------------|---------------------------------|
D|-8---8---8-----------------------|-11--11--11----------------------|
A|-8---8---8-----------------------|-11--11--11----------------------|
E|-8---8---8-----------------------|-11--11--11----------------------|

E|---------------------------------|---------------------------------|
B|---------------------------------|---------------------------------|
G|---------------------------------|---------------------------------|
D|-8---8---8-----------------------|-11--11--11----------------------|
A|-8---8---8-----------------------|-11--11--11----------------------|
E|-8---8---8-----------------------|-11--11--11----------------------|

E|---------------------------------|---------------------------------|
B|---------------------------------|---------------------------------|
G|---------------------------------|---------------------------------|
D|-8---8---8-----------------------|-11--11--11----------------------|
A|-8---8---8-----------------------|-11--11--11----------------------|
E|-8---8---8-----------------------|-11--11--11----------------------|

[Outro]
E|---------------------------------|---------------------------------|
B|---------------------------------|---------------------------------|
G|---------------------------------|---------------------------------|
D|-8---8---8-----------------------|---------------------------------|
A|-8---8---8-----------------------|---------------------------------|
E|-8---8---8-----------------------|---------------------------------|

E|---------------------------------|---------------------------------|
B|---------------------------------|---------------------------------|
G|---------------------------------|---------------------------------|
D|-8---8---8-----------------------|---------------------------------|
A|-8---8---8-----------------------|---------------------------------|
E|-8---8---8-----------------------|---------------------------------|

E|---------------------------------|---------------------------------|
B|---------------------------------|---------------------------------|
G|---------------------------------|---------------------------------|
D|-8---8---8-----------------------|---------------------------------|
A|-8---8---8-----------------------|---------------------------------|
E|-8---8---8-----------------------|---------------------------------|
Otros videos de esta canción
    6 exhibiciones
      • ½ Tono
      • A
      • Bb
      • B
      • C
      • Db
      • D
      • Eb
      • E
      • F
      • F#
      • G
      • Ab
    • Agregar a la lista

    Afinação da cifra

    Afinador online

      Ops (: Contenido disponible solo en portugués.
      OK