Cifra Club

Prom

Mindless Self Indulgence

Cifrado: Principal (guitarra y guitarra eléctrica)
Selo Cifra Club: esta cifra foi revisada para atender aos critérios oficiais da nossa Equipe de Qualidade.
tono: F#
   Intro/Verse   0:00
E|---------------------------------------|
B|---------------------------------------|
G|-11--13--8----7--6---11--13--8----7--6-|
D|--9--11--6----5--4----9--11--6----5--4-|
A|---------------------------------------|
E|---------------------------------------| 4X
   Everyone in highschool will worship

   0:16
E|---------------------------------------|
B|---------------------------------------|
G|-5---10---9---4---5---10---9---4-------|
D|-5---10---9---4---5---10---9---4-------|
A|-3----8---7---2---3----8---7---2-------|
E|---------------------------------------|
   You make me hard 4X

   0:26
E|---------------------------------------|
B|---------------------------------------|
G|---------------------------------------|
D|--7-7-7---6-6-6---3-3-3---2-2-2--------|
A|--7-7-7---6-6-6---3-3-3---2-2-2--------|
E|--7-7-7---6-6-6---3-3-3---2-2-2--------| 3X
   So now I'm

   0:35
E|-----------------------------------------------------------------|
B|-----------------------------------------------------------------|
G|-7-7-7-7--9-9-9-9--11-11-11-11--6-6-6-6--7-7-7-7---4-4--4-4--4-4-|
D|-7-7-7-7--9-9-9-9--11-11-11-11--6-6-6-6--7-7-7-7---4-4--4-4--4-4-|
A|-5-5-5-5--7-7-7-7---9--9--9--9--4-4-4-4--5-5-5-5---2-2--2-2--2-2-|
E|-----------------------------------------------------------------|
   Cause I'll be ffucking at the best prom ever

   0:47
E|---------------------------------------|
B|---------------------------------------|
G|---------------------------------------|
D|--7-7-7---6-6-6---3-3-3---2-2-2--------|
A|--7-7-7---6-6-6---3-3-3---2-2-2--------|
E|--7-7-7---6-6-6---3-3-3---2-2-2--------| 3X
   So now I'm

   0:55
E|-----------------------------------------------------------------|
B|-----------------------------------------------------------------|
G|-7-7-7-7--9-9-9-9--11-11-11-11--6-6-6-6--7-7-7-7---4-4--4-4------|
D|-7-7-7-7--9-9-9-9--11-11-11-11--6-6-6-6--7-7-7-7---4-4--4-4------|
A|-5-5-5-5--7-7-7-7---9--9--9--9--4-4-4-4--5-5-5-5---2-2--2-2------|
E|-----------------------------------------------------------------|
   Cause I'll be ffucking at the best prom ever

   1:04
E|--------------------------------------------|
B|--------------------------------------------|
G|--11-11-11-11--6-6-6-6--7-7-7-7---4-4--4-4--|
D|--11-11-11-11--6-6-6-6--7-7-7-7---4-4--4-4--|
A|---9--9--9--9--4-4-4-4--5-5-5-5---2-2--2-2--|
E|--------------------------------------------|
   (no lyrics)

   1:12
E|---------------------------------------|
B|---------------------------------------|
G|-11--13--8----7--6---11--13--8----7--6-|
D|--9--11--6----5--4----9--11--6----5--4-|
A|---------------------------------------|
E|---------------------------------------| 2X
   Everyone in highschool will worship

   1:23
E|---------------------------------------|
B|---------------------------------------|
G|-5---10---9---4---5---10---9---4-------|
D|-5---10---9---4---5---10---9---4-------|
A|-3----8---7---2---3----8---7---2-------|
E|---------------------------------------|1X
   You make me hard 4X

   1:33
E|---------------------------------------|
B|---------------------------------------|
G|---------------------------------------|
D|--7-7-7---6-6-6---3-3-3---2-2-2--------|
A|--7-7-7---6-6-6---3-3-3---2-2-2--------|
E|--7-7-7---6-6-6---3-3-3---2-2-2--------| 3X
   So now I'm

   1:41
E|-----------------------------------------------------------------|
B|-----------------------------------------------------------------|
G|-7-7-7-7--9-9-9-9--11-11-11-11--6-6-6-6--7-7-7-7---4-4--4-4--4-4-|
D|-7-7-7-7--9-9-9-9--11-11-11-11--6-6-6-6--7-7-7-7---4-4--4-4--4-4-|
A|-5-5-5-5--7-7-7-7---9--9--9--9--4-4-4-4--5-5-5-5---2-2--2-2--2-2-|
E|-----------------------------------------------------------------|1X
   Cause I'll be ffucking at the best prom ever

   1:55
E|----------------------------------------------------|
B|----------------------------------------------------|
G|-7-7-7-7--9-9-9-9--11-11-11-11--6-6-6-6--7-7-7-7----|
D|-7-7-7-7--9-9-9-9--11-11-11-11--6-6-6-6--7-7-7-7----|
A|-5-5-5-5--7-7-7-7---9--9--9--9--4-4-4-4--5-5-5-5----|
E|----------------------------------------------------| 1X
   Best prom ever

   2:03
E|-------------------------------------------------------------------|
B|-------------------------------------------------------------------|
G|-7/9-7/10-10--7/97/10-10--7/97/10-10--9/10-9-7-7-------------------|
D|-7/9-7/10-10--7/97/10-10--7/97/10-10--9/10-9-7-7-------------------|
A|-5/7-5/-8--8--5/75/-8--8--5/75/-8--8--7/-8-7-5-5-------------------|
E|-------------------------------------------------------------------| 2X
   Guess what, girlfriend, you have got nothing on me, whore

   2:14
E|-----------------------------------------------------------------|
B|-----------------------------------------------------------------|
G|-7-7-7-7--9-9-9-9--11-11-11-11--6-6-6-6--7-7-7-7---4-4--4-4--4-4-|
D|-7-7-7-7--9-9-9-9--11-11-11-11--6-6-6-6--7-7-7-7---4-4--4-4--4-4-|
A|-5-5-5-5--7-7-7-7---9--9--9--9--4-4-4-4--5-5-5-5---2-2--2-2--2-2-|
E|-----------------------------------------------------------------|1X
   Best prom ever.


Everyone in highschool will worship
The ffucking ground I walk on
If it was up to me

I'll never be a target
I'll never be a ffucking virgin
But it's not up to me

You make me hard
You make me hard
You make me hard
You make me hard

So now I'm (woooo)
We got the limo (woooo)
I'm running (woooo)

'Cause I'll be ffucking at the
Best prom ever

So now I'm (woooo)
We got the limo (woooo)
I'm running (woooo)

'Cause I'll be ffucking at the
Best prom ever

Everyone in highschool will worship
The ffucking ground I walk on
If it was up to me

I'll never be a target
I'll never be a ffucking virgin
But it's not up to me

You make me hard
You make me hard
You make me hard
You make me hard

So now I'm (woooo)
We got the limo (woooo)
I'm running (woooo)

'Cause I'll be ffucking at the
Best prom ever
Best prom ever

Guess what, girlfriend
You have got nothing on me, whore
You won't be missed
So get the whole ffucking thing over with
Otros videos de esta canción
    12 exhibiciones
      • ½ Tono
      • A
      • Bb
      • B
      • C
      • Db
      • D
      • Eb
      • E
      • F
      • F#
      • G
      • Ab
    • Agregar a la lista

    Afinação da cifra

    Afinador online

      Ops (: Contenido disponible solo en portugués.
      OK