Cifra Club

Tight

Mindless Self Indulgence

Cifrado: Principal (guitarra y guitarra eléctrica)
Selo Cifra Club: esta cifra foi revisada para atender aos critérios oficiais da nossa Equipe de Qualidade.
tono: C#m
[Intro](played as down,up,down,up)
E|---------------------------------------------------------------------------|
B|---------------------------------------------------------------------------|
G|---------------------------------------------------------------------------|
D|--2-2-2-2----------2-2-2-2-----------2-2-2-2-----------2-2-2-2-------------|
A|--2-2-2-2----------2-2-2-2-----------2-2-2-2-----------2-2-2-2-------------|
E|--0-0-0-0----------0-0-0-0-----------0-0-0-0-----------0-0-0-0-------------|

[Chorus]
E|---------------------------------------------------------------------------|
B|---------------------------------------------------------------------------|
G|--------------------5-5---------------------5-5----------------------------|
D|--2-2---5-5---3-3---5-5---2-2---5-5---3-3---5-5----------------------------|
A|--2-2---5-5---3-3---3-3---2-2---5-5---3-3---3-3----------------------------|
E|--0-0---3-3---1-1---------0-0---3-3---1-1----------------------------------|

E|---------------------------------------------------------------------------|
B|---------------------------------------------------------------------------|
G|--------------------5-5---------------------5-5----------------------------|
D|--2-2---5-5---3-3---5-5---2-2---5-5---3-3---5-5----------------------------|
A|--2-2---5-5---3-3---3-3---2-2---5-5---3-3---3-3----------------------------|
E|--0-0---3-3---1-1---------0-0---3-3---1-1----------------------------------|


Tell me what you want me to be...

[Verse 1](same as intro)
E|---------------------------------------------------------------------------|
B|---------------------------------------------------------------------------|
G|---------------------------------------------------------------------------|
D|--2-2-2-2----------2-2-2-2-------------------------------------------------|
A|--2-2-2-2----------2-2-2-2-------------------------------------------------|
E|--0-0-0-0----------0-0-0-0-------------------------------------------------|
I am tight (yeah-a)  Fuckin' right

[Chorus]
E|---------------------------------------------------------------------------|
B|---------------------------------------------------------------------------|
G|--------------------5-5---------------------5-5----------------------------|
D|--2-2---5-5---3-3---5-5---2-2---5-5---3-3---5-5----------------------------|
A|--2-2---5-5---3-3---3-3---2-2---5-5---3-3---3-3----------------------------|
E|--0-0---3-3---1-1---------0-0---3-3---1-1----------------------------------|

[I don't know](listen to song to hear how it's played)
E|---------------------------------------------------------------------------|
B|---------------------------------------------------------------------------|
G|---------------------------------------------------------------------------|
D|--2-2-2--5-5-5--3-3-3--6-6-6--2-2-2--5-5-5--3-3-3--6-6-6-------------------|
A|--2-2-2--5-5-5--3-3-3--6-6-6--2-2-2--5-5-5--3-3-3--6-6-6-------------------|
E|--0-0-0--3-3-3--1-1-1--4-4-4--0-0-0--3-3-3--1-1-1--4-4-4-------------------|

[Verse 2](played as fast down strums)
E|---------------------------------------------------------------------------|
B|---------------------------------------------------------------------------|
G|---------------------------------------------------------------------------|
D|--2-2-2-2----------2-2-2-2-----------2-2-2-2-----------2-2-2-2-------------|
A|--2-2-2-2----------2-2-2-2-----------2-2-2-2-----------2-2-2-2-------------|
E|--0-0-0-0----------0-0-0-0-----------0-0-0-0-----------0-0-0-0-------------|
I could be the...    back...           I could be the... I could be the...

[Chorus](top part played same as intro)
E|---------------------------------------------------------------------------|
B|---------------------------------------------------------------------------|
G|---------------------------------------------------------------------------|
D|--2-2-2-2----------2-2-2-2-------------------------------------------------|
A|--2-2-2-2----------2-2-2-2-------------------------------------------------|
E|--0-0-0-0----------0-0-0-0-------------------------------------------------|
Get down

E|---------------------------------------------------------------------------|
B|---------------------------------------------------------------------------|
G|--------------------5-5---------------------5-5----------------------------|
D|--2-2---5-5---3-3---5-5---2-2---5-5---3-3---5-5----------------------------|
A|--2-2---5-5---3-3---3-3---2-2---5-5---3-3---3-3----------------------------|
E|--0-0---3-3---1-1---------0-0---3-3---1-1----------------------------------|

[Verse 1]
E|---------------------------------------------------------------------------|
B|---------------------------------------------------------------------------|
G|---------------------------------------------------------------------------|
D|--2-2-2-2----------2-2-2-2-------------------------------------------------|
A|--2-2-2-2----------2-2-2-2-------------------------------------------------|
E|--0-0-0-0----------0-0-0-0-------------------------------------------------|

[Chorus]
E|---------------------------------------------------------------------------|
B|---------------------------------------------------------------------------|
G|--------------------5-5---------------------5-5----------------------------|
D|--2-2---5-5---3-3---5-5---2-2---5-5---3-3---5-5----------------------------|
A|--2-2---5-5---3-3---3-3---2-2---5-5---3-3---3-3----------------------------|
E|--0-0---3-3---1-1---------0-0---3-3---1-1----------------------------------|

[I don't know]
E|---------------------------------------------------------------------------|
B|---------------------------------------------------------------------------|
G|--------------------5-5---------------------5-5----------------------------|
D|--2-2---5-5---3-3---5-5---2-2---5-5---3-3---5-5----------------------------|
A|--2-2---5-5---3-3---3-3---2-2---5-5---3-3---3-3----------------------------|
E|--0-0---3-3---1-1---------0-0---3-3---1-1----------------------------------|

[Bridge]
E|---------------------------------------------------------------------------|
B|---------------------------------------------------------------------------|
G|---------------------------------------------------------------------------|
D|--9-9-9-9--5-5-5-5--3-3-3-3--5-5-5-5--9-9-9-9--5-5-5-5--3-3-3-3--5-5-5-5---|
A|--9-9-9-9--5-5-5-5--3-3-3-3--5-5-5-5--9-9-9-9--5-5-5-5--3-3-3-3--5-5-5-5---|
E|--7-7-7-7--3-3-3-3--1-1-1-1--3-3-3-3--7-7-7-7--3-3-3-3--1-1-1-1--3-3-3-3---|

[Verse 1]
E|---------------------------------------------------------------------------|
B|---------------------------------------------------------------------------|
G|---------------------------------------------------------------------------|
D|--2-2-2-2----------2-2-2-2-------------------------------------------------|
A|--2-2-2-2----------2-2-2-2-------------------------------------------------|
E|--0-0-0-0----------0-0-0-0-------------------------------------------------|

[Chorus]
E|---------------------------------------------------------------------------|
B|---------------------------------------------------------------------------|
G|--------------------5-5---------------------5-5----------------------------|
D|--2-2---5-5---3-3---5-5---2-2---5-5---3-3---5-5----------------------------|
A|--2-2---5-5---3-3---3-3---2-2---5-5---3-3---3-3----------------------------|
E|--0-0---3-3---1-1---------0-0---3-3---1-1----------------------------------|

[I don't know]
E|---------------------------------------------------------------------------|
B|---------------------------------------------------------------------------|
G|--------------------5-5---------------------5-5----------------------------|
D|--2-2---5-5---3-3---5-5---2-2---5-5---3-3---5-5----------------------------|
A|--2-2---5-5---3-3---3-3---2-2---5-5---3-3---3-3----------------------------|
E|--0-0---3-3---1-1---------0-0---3-3---1-1----------------------------------|

[Verse 2]
E|---------------------------------------------------------------------------|
B|---------------------------------------------------------------------------|
G|---------------------------------------------------------------------------|
D|--2-2-2-2----------2-2-2-2-----------2-2-2-2-----------2-2-2-2-------------|
A|--2-2-2-2----------2-2-2-2-----------2-2-2-2-----------2-2-2-2-------------|
E|--0-0-0-0----------0-0-0-0-----------0-0-0-0-----------0-0-0-0-------------|

[Outro](same as intro)
E|---------------------------------------------------------------------------|
B|---------------------------------------------------------------------------|
G|---------------------------------------------------------------------------|
D|--2-2-2-2----------2-2-2-2-----------2-2-2-2-----------2-2-2-2-------------|
A|--2-2-2-2----------2-2-2-2-----------2-2-2-2-----------2-2-2-2-------------|
E|--0-0-0-0----------0-0-0-0-----------0-0-0-0-----------0-0-0-0-------------|

wait 13 seconds

E|---------------------------------------------------------------------------|
B|---------------------------------------------------------------------------|
G|---------------------------------------------------------------------------|
D|--2-2-2-2------------------------------------------------------------------|
A|--2-2-2-2------------------------------------------------------------------|
E|--0-0-0-0------------------------------------------------------------------|
Otros videos de esta canción
    4 exhibiciones
      • ½ Tono
      • Am
      • Bbm
      • Bm
      • Cm
      • C#m
      • Dm
      • Ebm
      • Em
      • Fm
      • F#m
      • Gm
      • G#m
    • Agregar a la lista

    Afinação da cifra

    Afinador online

      Ops (: Contenido disponible solo en portugués.
      OK