Cifra Club

Aprenda

No Céu

Ministério Avivah

Tablatura: Principal (guitarra)
Tom: B
[Intro] B  F#  G#m  E
        B  F#  G#m  E

E|------------------------------------------|
B|-16---11-12---9---------------------------|
G|------------------------------------------|
D|------------------------------------------|
A|-14---9--11---7---------------------------|
E|------------------------------------------|

E|------------------------------------------|
B|-16---11-12---9---16----------------------|
G|------------------------------------------|
D|------------------------------------------|
A|-14---9--11---7---14----------------------|
E|------------------------------------------|

[Primeira Parte]

B               F#   G#m
  Eu vi o céu aberto
       E     B           F#  G#m  E
E uma forte voz a me chamar
B                F#  G#m
  No trono assentado
         E  B         F#   G#m
Está o Criador do universo
  E      B  F#  G#m  E
E ele é Santo, San--to

[Refrão]

E     B       G#m    F#
  No céu eu quero morar
E       B        G#m        F#
  Para sempre estar ao Teu lado
      E         B        G#m  F#
Bendirei o Teu nome pra sem-pre
        E   B        G#m  F#
Ôh- ôh- ôh- ôh! Pra sem-pre!

( B  F#  G#m  E )
( B  F#  G#m  E )

E|------------------------------------------|
B|-16---11-12---9---------------------------|
G|------------------------------------------|
D|------------------------------------------|
A|-14---9--11---7---------------------------|
E|------------------------------------------|

E|------------------------------------------|
B|-16---11-12---9---16----------------------|
G|------------------------------------------|
D|------------------------------------------|
A|-14---9--11---7---14----------------------|
E|------------------------------------------|

[Primeira Parte]

B               F#   G#m
  Eu vi o céu aberto
       E     B           F#  G#m  E
E uma forte voz a me chamar
B                F#  G#m
  No trono assentado
         E  B         F#   G#m
Está o Criador do universo
  E      B  F#  G#m  E
E ele é Santo, San--to

[Refrão]

E     B       G#m    F#
  No céu eu quero morar
E       B        G#m        F#
  Para sempre estar ao Teu lado
      E         B        G#m  F#
Bendirei o Teu nome pra sem-pre
        E   B        G#m  F#
Ôh- ôh- ôh- ôh! Pra sem-pre!
E     B       G#m    F#
  No céu eu quero morar
E       B        G#m        F#
  Para sempre estar ao Teu lado
      E         B        G#m  F#
Bendirei o Teu nome pra sem-pre
        E   B        G#m  F#
Ôh- ôh- ôh- ôh! Pra sem-pre!

( C#  G#m  F# )
( C#  G#m  F# )

E|-12-12-12-12-12-12-14-14-11-11-11-11-9-9-9-9---|
B|-----------------------------------------------|
G|-----------------------------------------------|
D|-----------------------------------------------|
A|-----------------------------------------------|
E|-----------------------------------------------|

E|-12-12-12-12-12-12-14-14--------14-------------|
B|--------------------------11-12-----11-12-14---|
G|-----------------------------------------------|
D|-----------------------------------------------|
A|-----------------------------------------------|
E|-----------------------------------------------|

[Ponte]

 C#m     G#m        F#
Poderoso é o nosso Deus
  C#m     G#m          F#
Que reina e que há de voltar
  C#m           G#m        F#
Glória e honra seja ao nosso Deus
  C#m          G#m   F#
Que vive para sempre

[Refrão]

E     B       G#m    F#
  No céu eu quero morar
E       B        G#m        F#
  Para sempre estar ao Teu lado
      E         B        G#m  F#
Bendirei o Teu nome pra sem-pre
        E   B        G#m  F#
Ôh- ôh- ôh- ôh! Pra sem-pre!
E     B       G#m    F#
  No céu eu quero morar
E       B        G#m        F#
  Para sempre estar ao Teu lado
      E         B        G#m  F#
Bendirei o Teu nome pra sem-pre
        E   B        G#m  F#
Ôh- ôh- ôh- ôh! Pra sem-pre!
        E   B        G#m  F#  E
Ôh- ôh- ôh- ôh! Pra sem-pre!
Colaboración y revision:
29 reproducciones
    • ½ Tom
    • A
    • Bb
    • B
    • C
    • Db
    • D
    • Eb
    • E
    • F
    • F#
    • G
    • Ab
  • Adicionar à lista

    0 comentarios

    Mostrar mais comentários
    00:00 / 00:00
    outros vídeos desta música
    repetir qualidade Automático
    Outros vídeos desta música
    00:00 / 00:00
    Automático
    OK