Cifra Club

Ressuscita

Ministério Ipiranga

Tablatura: Principal (guitarra)
reproducciones 606
Tono: D
[Intro] D  D9  D  D4  D  D9  D/F#
        G7M(9)  D4/G  G7M(9)  G  G7M(9)  D4/G  D/F#
        Em7(9)  Em7  Em7(9)  G/B  Em7(9)  Em7  A4(7)  A7

[Solo] D  D/F#  G  D/F#  Em  A9

E|-----------------------------------------------------------------------|
B|-------------------------7-8-7-----------------------------------------|
G|-------7-9-11-9-7-9--7-9-------9---------------------------------------|
D|-7-7-9-----------------------------------------------------------------|
A|-----------------------------------------------------------------------|
E|-----------------------------------------------------------------------|

E|------------------10---10----10-12-14-15-14-12-------------------------|
B|--------7-------7----7----7--------------------------------------------|
G|--7-9-7---9-7-9--------------------------------------------------------|
D|-----------------------------------------------------------------------|
A|-----------------------------------------------------------------------|
E|-----------------------------------------------------------------------|

E|-10-12-17-14-14---------10-12-10-14-14-12-10--10-12-14-15-14-12-10-12--|
B|----------------17-15-----------------------10-------------------------|
G|-----------------------------------------------------------------------|
D|-----------------------------------------------------------------------|
A|-----------------------------------------------------------------------|
E|-----------------------------------------------------------------------|

            Bm
O que posso ver
  A/C#                  D4  D
Senão um vale de ossos secos
                Bm
E o que posso dizer
   A/C#             D4  D
Se já se foi a esperança?

         Bm             G
Nossa vergonha, está exposta
            D            A/C#
Debaixo do sol, Há muito tempo
             Bm             G                D      A/C#
Se foi a Alegria, não há Espírito, não há Palavra

         Em                G
Filho do Homem, muda a história
        D
Com tua boca
      A/C#
Profetiza!!!
         Em              C9            Em        A9
Volte Alegria, Tenha Espírito, Haja Palavra!!!

       D
Ressuscita!!!
                 D/F#  G
Oh terra que estava morta
              D/F#  Em
Oh Vale de ossos secos
             A9
Volte a respirar

        D                   G
Posso ouvir,   o som do avivamento
            D/F#  Em             A9
A Morte tornando vida...  Ressuscita!!!

            Bm
O que posso ver
  A/C#                  D4  D
Senão um vale de ossos secos
              Bm
E o que posso dizer
   A/C#             D4  D
Se já se foi a esperança?

         Bm             G
Nossa vergonha, está exposta
            D            A/C#
Debaixo do sol, Há muito tempo
             Bm             G                D      A/C#
Se foi a Alegria, não há Espírito, não há Palavra

         Em                G
Filho do Homem, muda a história
        D
Com tua boca
     A/C#
Profetiza!!!
         Em              C9            Em        A9
Volte Alegria, Tenha Espírito, Haja Palavra!!!

       D
Ressuscita!!!
                D/F#  G
Oh terra que estava morta
              D/F#  Em
Oh Vale de ossos secos
             A9
Volte a respirar

        D            (pausa) G
Posso ouvir,   o som do avivamento
            D/F#  Em             A9
A Morte tornando vida...  Ressuscita!!!

( A9 )

Dm
Vida
                    C      Bb
Eu profetizo sobre ti a vida
            (F/A) Gm      Bb
Receba sobre ti  a vida
C         D
Vida de Deus!  

       D
Ressuscita!!!
      D/F#             G
Oh terra que estava morta
              D/F#  Em
Oh Vale de ossos secos
             A9
Volte a respirar
        D                   G
Posso ouvir,   o som do avivamento
             D/F#  Em            A9
A Morte tornando vida...  Ressuscita!!!

       D
Ressuscita!!!
               D/F#  G
Oh terra que estava morta
              D/F#  Em
Oh Vale de ossos secos
             A9
Volte a respirar
        D/F#                 C
Posso ouvir,   o som do avivamento
                 Em            A9
A Morte tornando vida...  Ressuscita!!!

0 comentarios

mostrar más comentarios

¿Conseguiste tocar?

55 tocaron 8 aún no

¡Graba un vídeo tocando Ressuscita y envianoslo!

00:00 / 00:00
outros vídeos desta música
repetir qualidade Automático
Outros vídeos desta música
00:00 / 00:00
Automático
OK