Cifra Club

Dia e Noite

Morada

Cifrado: Principal (guitarra y guitarra eléctrica)
tono: F#m
D
  Dia e noite
Noite e dia
Sem cessar
Até que Ele venha
F#m7
    Dia e noite
Noite e dia
E/G#
    Sem cessar
Até que Ele venha

D
  Dia e noite
Noite e dia
Sem cessar
Até que Ele venha
F#m7
    Dia e noite
Noite e dia
E/G#
    Sem cessar
Até que Ele venha

Riff Guitarra
E|---17-14------------------------------------------|
B|----------17p14-17p14-----------------------------|
G|-----------------------16p14-16p14----------------|
D|-----------------------------------16p14-16p14----|
A|--------------------------------------------------|
E|--------------------------------------------------|

Variação
E|-17p14-17p14--------------------------------------|
B|-------------17p14-17p14--------------------------|
G|-------------------------16p14-16p14--------------|
D|-------------------------------------16p14-16p14--|
A|--------------------------------------------------|
E|--------------------------------------------------|

[Segunda Parte]

D
  Dia e noite
Noite e dia
E4
   Sem cessar
Até que Ele venha
F#m7
     Dia e noite
Noite e dia
E/G#
    Sem cessar
Até que Ele venha

D
  Dia e noite
Noite e dia
E4
   Sem cessar
Até que Ele venha
F#m7
     Dia e noite
Noite e dia
E/G#
    Sem cessar
Até que Ele venha

D
  Dia e noite
Noite e dia
E4
   Sem cessar
Até que Ele venha
F#m7
     Dia e noite
Noite e dia
E/G#
    Sem cessar
Até que Ele venha

D
  Dia e noite
Noite e dia
E4
   Sem cessar
Até que Ele venha
F#m7
     Dia e noite
Noite e dia
E/G#
    Sem cessar
Até que Ele venha

D
  Dia e noite
Noite e dia
E4
   Sem cessar
Até que Ele venha
F#m7
     Dia e noite
Noite e dia
E/G#
    Sem cessar
Até que Ele venha

D
  Dia e noite
Noite e dia
E4
   Sem cessar
Até que Ele venha
F#m7
     Dia e noite
Noite e dia
E/G#
    Sem cessar
Até que Ele venha

D
  Dia e noite
Noite e dia
E4
   Sem cessar
Até que Ele venha
F#m7
     Dia e noite
Noite e dia
E/G#
    Sem cessar
Até que Ele venha

D
  Dia e noite
Noite e dia
E4
   Sem cessar
Até que Ele venha
F#m7
     Dia e noite
Noite e dia
E/G#
    Sem cessar
                  D
Até que Ele venha
Composición de Fernanda Ferro
Colaboración y revisión:
  • Thiago Almeida
  • Vinícius Vasques
14 vistas
    • ½ Tono
    • Am
    • Bbm
    • Bm
    • Cm
    • C#m
    • Dm
    • Ebm
    • Em
    • Fm
    • F#m
    • Gm
    • G#m
  • Agregar a la lista

    0 comentarios

    Ver todos los comentarios

    ¿Lograste tocar?

    2 Tocaron 0 Aún no

    ¡Graba un video tocando Dia e Noite y envíanoslo!

    00:00 / 00:00
    Outros vídeos desta música
    Repetir Calidad Automático
    Outros vídeos desta música
    00:00 / 00:00
    Automático
    OK