Cifra Club

Isaias 6

Morada

Cifrado: Principal (guitarra y guitarra eléctrica)
Já pensou em usar uma coleção de roupas do Cifra Club? Responda as perguntas abaixo e nos ajude nessa missão! →
tono: A
[Intro] A  D  F#m  E  D  Bm  D  E

E|-------------12-12-12----------------------------|
B|-10-10-10-10----------14-14-14-14--14~-----------|
G|-------------------------------------------------|
D|-------------------------------------------------|
A|-------------------------------------------------|
E|-------------------------------------------------|

E|-------------12-12-12-14-------------------------|
B|-10-10-10-10-------------14-14-14-14--14~--------|
G|-------------------------------------------------|
D|-------------------------------------------------|
A|-------------------------------------------------|
E|-------------------------------------------------|

E|-------------12-12-12----------------------------|
B|-10-10-10-10----------14-14-14-14--14~-----------|
G|-------------------------------------------------|
D|-------------------------------------------------|
A|-------------------------------------------------|
E|-------------------------------------------------|

E|-------------12-12-12-14-------------------------|
B|-10-10-10-10-------------14-14-14-14--14~--------|
G|-------------------------------------------------|
D|-------------------------------------------------|
A|-------------------------------------------------|
E|-------------------------------------------------|

E|-------------------------------------------------|
B|-12-12-12-12-12-12-14-14-12-12-14-14-15-15-14-14-|
G|-------------------------------------------------|
D|-------------------------------------------------|
A|-------------------------------------------------|
E|-------------------------------------------------|

E|-------------------------------------------------|
B|-12-12-12-12-12-12-12-12-12-12-14-14-15-15-14-14-|
G|-------------------------------------------------|
D|-------------------------------------------------|
A|-------------------------------------------------|
E|-------------------------------------------------|

E|-------------------------------------------------|
B|-------------14---------------------12-------10--|
G|-11-11-11-11----11-11-11---11-11-11----9-9-9-----|
D|-------------------------------------------------|
A|-------------------------------------------------|
E|-------------------------------------------------|

E|-------------------------------------------------|
B|-------------------------------------------------|
G|-7-7-7--6~---------------------------------------|
D|-------------------------------------------------|
A|-------------------------------------------------|
E|-------------------------------------------------|

 A              E                       D
Vi o Senhor sentado no alto e sublime trono
                  F#m                   E
E a orla de Suas vestes enchiam o templo
                 A             D
Enquanto anjos voavam sobre Você

               F#m
Com duas asas cobriam o Seu rosto
                 E
Com outras duas cobriam Seus pés
                 A
Cantavam uma canção uns para os outros
           D
Santo é Você
Santo é Você Senhor
               F#m
Com duas asas cobriam o Seu rosto
                 E
Com outras duas cobriam Seus pés
                 A
Cantavam uma canção uns para os outros
           D
Santo é Você
Santo é Você

          A
Que toda terra se encha com a Sua Glória
          D
Que toda casa se encha com a Tua fumaça
              F#m           E
E que os meus olhos sempre vejam o Rei da Glória
               D
Senhor dos senhores e Eterno Deus
               Bm
Senhor dos senhores e Eterno Deus

          A
Que toda terra se encha com a Sua Glória
          D
Que toda casa se encha com a Tua fumaça
              F#m           E
E que os meus olhos sempre vejam o Rei da Glória
               D
Senhor dos senhores e Eterno Deus
               Bm
Senhor dos senhores e Eterno Deus

( F#m  E  D  Bm )
( F#m  E  D  Bm )

E|------------------------------------------------|
B|------------------------------14---------12-----|
G|-13~-9-6--13~-9-6--11-11-11-11---11-11-11-------|
D|------------------------------------------------|
A|------------------------------------------------|
E|------------------------------------------------|

E|------------------------------------------------|
B|--------------10--------------------------------|
G|-9-9-9---9-9-9----7-7-7--6~---------------------|
D|------------------------------------------------|
A|------------------------------------------------|
E|------------------------------------------------|

E|------------------------------------------------|
B|------------------------------14---------12-----|
G|-13~-9-6--13~-9-6--11-11-11-11---11-11-11-------|
D|------------------------------------------------|
A|------------------------------------------------|
E|------------------------------------------------|

E|------------------------------------------------|
B|--------------10--------------------------------|
G|-9-9-9---9-9-9----7-7-7--6~---------------------|
D|------------------------------------------------|
A|------------------------------------------------|
E|------------------------------------------------|

 A              E                       D
Vi o Senhor sentado no alto e sublime trono
                  F#m                   E
E a orla de Suas vestes enchiam o templo
                 A             D
Enquanto anjos voavam sobre Você

               F#m
Com duas asas cobriam o Seu rosto
                 E
Com outras duas cobriam Seus pés
                 A/C#
Cantavam uma canção uns para os outros
           D
Santo é Você
Santo é Você
               F#m
Com duas asas cobriam o Seu rosto
                 E
Com outras duas cobriam Seus pés
                 A
Cantavam uma canção uns para os outros
           D
Santo é Você
Santo é Você

          A
Que toda terra se encha com a Sua Glória
          D
Que toda casa se encha com a Tua fumaça
              F#m           E
E que os meus olhos sempre vejam o Rei da Glória
               D
Senhor dos senhores e Eterno Deus
               Bm
Senhor dos senhores e Eterno Deus
          A
Que toda terra se encha com a Sua Glória
          D
Que toda casa se encha com a Tua fumaça
              F#m           E
E que os meus olhos sempre vejam o Rei da Glória
               D
Senhor dos senhores e Eterno Deus
               Bm
Senhor dos senhores e Eterno Deus

             D                       F#m  E
O meu desejo é sentir Você, ó rio perene
                  D
E com o calor do fogo moldado ser
           F#m          E
Pelo poder de Suas mãos
              D
Ó vento impetuoso
                   F#m                  E
Balança-me e direciona-me ao Teu encontro
               D                         F#m        E
E junto com os anjos eu cantarei uma canção de amor
             D                       F#m  E
O meu desejo é sentir Você, ó rio perene
                  D
E com o calor do fogo moldado ser
           F#m          E
Pelo poder de Suas mãos
              D
Ó vento impetuoso
                   F#m                  E
Balança-me e direciona-me ao Teu encontro
               D                         F#m        E
E junto com os anjos eu cantarei uma canção de amor

          A
Que toda terra se encha com a Sua Glória
          D
Que toda casa se encha com a Tua fumaça
              F#m           E
E que os meus olhos sempre vejam o Rei da Glória
               D
Senhor dos senhores e Eterno Deus
               Bm
Senhor dos senhores e Eterno Deus
          A
Que toda terra se encha com a Sua Glória
          D
Que toda casa se encha com a Tua fumaça
              F#m           E
E que os meus olhos sempre vejam o Rei da Glória
               D
Senhor dos senhores e Eterno Deus
               Bm
Senhor dos senhores e Eterno Deus
Composición de Junior Menezes
Colaboración y revisión:
1.340 vistas
    • ½ Tono
    • A
    • Bb
    • B
    • C
    • Db
    • D
    • Eb
    • E
    • F
    • F#
    • G
    • Ab
  • Agregar a la lista

    0 comentarios

    Ver todos los comentarios
    00:00 / 00:00
    Outros vídeos desta música
    Repetir Calidad Automático
    Outros vídeos desta música
    00:00 / 00:00
    Automático
    OK