Cifra Club

Desperta

Pedras Vivas

Cifrado: Principal (guitarra y guitarra eléctrica)
tono: G
E|---------------------------------------------------------|
B|---------------------------------------------------------|
G|---------------------------------------------------------|
D|---------7-9-9-7-9/12-12---------------------------------| (x3)   
A|--------------------------10-10-9-9-7-7-7----------------|
E|---------------------------------------------------------|

E|---------------------------------------------------------|
B|---------------------------------------------------------|
G|---------------------------9-9-11-11-12-12---------------|
D|---------7-9-9-7-9/12-12---------------------------------|    
A|---------------------------------------------------------|
E|---------------------------------------------------------|

 
  C           D              Bm          Em
Ao despertar eu cantarei, teu nome eu proclamarei
    C           D              Bm          Em
No ritmo do teu coração, levarei a salvação
    C                       D
Teu fogo em meu olhar brilhando está
   Bm            Em
A chama não se apagará
     C             D
Nas ruas do amor refletirá
     Bm            Em
Tua glória resplandecerá

 C                      D
tu jamais me deixarás, em minha vida estás
  Bm                    Em
Este amor em meus ser, para sempre brilhará   (2x)

Ponte: C  D  Bm  Em (2x)

 C                D
Tu vives em mim, vives em mim
Bm          Em
Em meu coração pra sempre     

Passagem: C  D  Bm  Em (2x)

 C             D
Pra sempre, pra sempre
Bm            Em
Pra sempre, nesse amor
Compositor não encontrado.
Colaboración y revisión:
  • Gabriel Hebling
7 vistas
    • ½ Tono
    • A
    • Bb
    • B
    • C
    • Db
    • D
    • Eb
    • E
    • F
    • F#
    • G
    • Ab
  • Agregar a la lista

    0 comentarios

    Ver todos los comentarios
    00:00 / 00:00
    Outros vídeos desta música
    Repetir Calidad Automático
    Outros vídeos desta música
    00:00 / 00:00
    Automático
    OK