Cifra Club

Infinitamente Mais

Pedras Vivas

Cifrado: Principal (guitarra y guitarra eléctrica)
tono: F
Intro: F  Bb
E|--------------------------------------------------------
B|--------------------------------------------------------
G|---0h2---0--0-------------------------------------------
D|----------------3--3---0--0----2--2h3-------------------
A|-----------------------------------------3--------------
E|--------------------------------------------------------

E|--------------------------------------------------------
B|--------------------------------------------------------
G|---0h2---0--0-------------------------------------------
D|-----------------3--3-----------------------------------
A|--------------------------------------------------------
E|--------------------------------------------------------

    F        Gm11            F/A         Bb
Teu pensar para mim, tão mais alto o meu futuro
         F        Gm11      F/A              Bb
Em tuas mãos é de Paz muito mais do que eu pensava
       Am       Bb                Am       Bb
È tua vontade pra mim perfeita e agradável assim ..eu sei

F       F/A                Bb
Infinitamente mais são os planos de Deus pra mim
F        F/A                Bb
Infinitamente mais Do que um dia eu já sonhei       (Intro)

        F       Gm11       Am            Bb
Ninguem viu nem ouvi o que Deus tem preparado
     F        Gm11        Am      Bb
Para nós vou viver dia a dia descobrindo
         Am       Bb                 Am        Bb
A tua vontade pra mim perfeita e agradável assim ..eu sei
Composición de Paulo Junior
Colaboración y revisión:
  • Gabriel
28 vistas
    • ½ Tono
    • A
    • Bb
    • B
    • C
    • Db
    • D
    • Eb
    • E
    • F
    • F#
    • G
    • Ab
  • Agregar a la lista

    0 comentarios

    Ver todos los comentarios
    00:00 / 00:00
    Outros vídeos desta música
    Repetir Calidad Automático
    Outros vídeos desta música
    00:00 / 00:00
    Automático
    OK