Cifra Club

Decending Angel

Misfits

Tab de bajo: Principal
Já pensou em usar uma coleção de roupas do Cifra Club? Responda as perguntas abaixo e nos ajude nessa missão! →
INTRO:
RIFF:A
G ----------------------------------------------------|
D ----------------------------------------------------|
A --------------5--5-5-5-5----------------------------|
E -7--7-7-7-7---------------5--5-5-5-5---5--5-5-5-5---|

RIFF:B
G ------------------------------------------------------|
D ------------------------------------------------------|
A --------------5--5-5-5-5------------------------------|
E -7--7-7-7-7---------------5--5-5-5-5--2-2-2-2-2-2-2-2-|

VERSEL:
RIFF:A(1x3)
RIFF:C
G ------------------------------------------------------|
D ------------------------------------------------------|
A --------------5--5-5-5-5------------------------------|
E -7--7-7-7-7---------------5--5-5-5-5-2----------------|

RIFF:D
G -------------------------------------------------------|
D -------------------------------------------------------|
A -------------5--5-5-5-5--------------------------------|
E -7--7-7-7-7--------------5--5-5-5-5---5--5-5-5-5-------|

G -------------------------------------------------------|
A -------------------------------------------------------|
A -------------------------------------------------------|
E -3--3-3-3-3----0--0-0-0-0--2-2-2-2-2-2-2-2-2-2-2-2-2-2-|

RIFF:E
G -------------------------------------------------------|
A -------------------------------------------------------|
A -------------------------------------------------------|
E -7--7-7-7-7---7--7-7-7-7---5--5-5-5-5---5--5-5-5-5-----|

G -------------------------------------------------------|
D -------------------------------------------------------|
A -------------------------------------------------------|
E -3--3-3-3-3--0--0-0-0-0--2-2-2-2-2-2-2-2-2-2-2-2-2-2-2-|

RIFF:B(x3)
RIFF:F (SLOW DOWN)
G --------------------------------------------------------|
D --------------------------------------------------------|
A -------------5--5-5-5-5---------------------------------|
E-7--7-7-7-7---------------5--5-5-5-5---0-2----------7----|

NOTE:RIFF:D IS WHEN THE SOLO STARTS,CHECK THE TIMING.
Composición de Daniel Rey / Misfits
238 vistas

0 comentarios

Ver todos los comentarios

¿Lograste tocar?

2 Tocaron 0 Aún no

¡Graba un video tocando Decending Angel y envíanoslo!

00:00 / 00:00
Outros vídeos desta música
Repetir Calidad Automático
Outros vídeos desta música
00:00 / 00:00
Automático
OK