Notificações Amigos pendentes

      Misfits

      Descending Angel

      991 reproducciones
      Tono: D
      from famous monsters
      
      i dont know the solo if you know it please email me.
      Chris  (DrummerGuyAOF@*)
      
      
      \\-side whole fret board
      
      intro riff
      
      
      e----------------------------------------------------
      B----------------------------------------------------
      G----------------------------------------------------
      D----------------------------------------------------
      A-9-9999-1212-121212-7-7777\\44444444----------------
      E-7-7777-1010-101010-5-5555\\22222222----------------
      
      
      verse riff
      
      
      e----------------------------------------------------
      B----------------------------------------------------
      G----------------------------------------------------
      D----------------------------------------------------
      A-9-9999-1212-121212-7-7777-44444444-----------------
      E-7-7777-1010-101010-5-5555-22222222-----------------
      
      
      chorus riff 1
      
      
      e----------------------------------------------------
      B----------------------------------------------------
      G----------------------------------------------------
      D----------------------------------------------------
      A-9-9999-1212-121212-7-7777\\44444444----------------
      E-7-7777-1010-101010-5-5555\\22222222----------------
      
      
      chorus riff 2
      
      
      e----------------------------------------------------
      B----------------------------------------------------
      G----------------------------------------------------
      D----------------------------------------------------
      A-9-9999-1212-121212-7-7777-44444444-----------------
      E-7-7777-1010-101010-5-5555-22222222-----------------
      
      
      song layout
      
      intro riff x2
      pause
      verse riff x4
      pause
      chorus riff 1
      chorus riff 2
      pause
      chorus riff 1
      chorus riff 2
      pause
      verse riff x4
      pause
      chorus riff 1
      chorus riff 2
      pause
      chorus riff 1
      chorus riff 2
      solo (not tabbed)/verse riff x4
      pause
      chorus riff 1
      chorus riff 2
      pause
      chorus riff 1
      chorus riff 2
      solo 2 (not tabbed)/verse riff x4
        Composición: Daniel Rey / Misfits

        Comentarios 0

        140 .
        140 cancelar

        ¿conseguiste tocar?

        • •••

        covers

        ¡Grave un vídeo tocando Descending Angel y envie para nosotros!

        Ex.: http://www.youtube.com/watch?v=0IvSvIwGdwk
        ver cover de otras canciones »
        0:00 / 0:00

        Capitulos

          4 versões de guitarra dificuldad reproducciones contribuición y correción
          4 versões de guitarra eléctrica dificuldad reproducciones contribuición y correción
          4 versões de cavaco dificuldad reproducciones contribuición y correción
          4 versões de teclado dificuldad reproducciones contribuición y correción
          2 versões de contrabajo reproducciones contribuición y correción
          play/pausefechar subir/bajar velocidad
          6ª cuerda E5ª cuerda A4ª cuerda D3ª cuerda G2ª cuerda B1ª cuerda E
            acordes
            publicidad
            cerrar
            ok