Cifra Club

Aprenda

Bella Ciao

Modena City Ramblers

Tablatura: Principal (guitarra)
Tom: Em
E|-7----7-----8-7----7------------------------7---------------------|
B|---10-----------10-----------7-10-8-----10----8---7---------------|
G|---------------------9-----9--------------------9-----------------|
D|------------------------------------------------------------------|
A|------------------------------------------------------------------|
E|------------------------------------------------------------------|

E|-7----7-----8-7----7------------------------7---------------------|
B|---10-----------10-----------7-10-8-----10----8---7---------------|
G|---------------------9-----9--------------------9-------7-9-------|
D|------------------------------------------------------9-----------|
A|------------------------------------------------------------------|
E|------------------------------------------------------------------|

        Em
Una mattina mi son svegliato

O bella ciao, bella ciao, bella ciao ciao ciao
        Am               Em
Una mattina mi son svegliato
          B7         Em
Eo ho trovato l'invasor

        Em
O partigiano porta mi via

O bella ciao, bella ciao, bella ciao ciao ciao
        Am             Em
O partigiano porta mi via
        B7         Em
Che mi sento di morir

          Em
E se io muoio da partigiano

O bella ciao, bella ciao, bella ciao ciao ciao
         Am             Em
E se io muoio da partigiano
       B7         Em
Tu mi devi seppellir

         Em
E seppellire lassù in montagna

O bella ciao, bella ciao, bella ciao ciao ciao
         Am               Em
E seppellire lassù in montagna
        B7               Em
Sotto l'ombra di un bel fior

E|-----------------------------------------------------|
B|-----------------------------------------------------|
G|-------0----0---0-2---0--------0------0---4-2---0----|
D|---2-4---2----4-----4---2----2---4-0----4-----4---2--|  (2x)
A|-2-------------------------2-------------------------|
E|-----------------------------------------------------|

E|---0-0---0----0-0-2-3-0---0-0------------------------|
B|-------3----0-----------0-----3-2-3------------------|
G|-----------------------------------------------------|
D|-----------------------------------------------------|  (2x)
A|-----------------------------------------------------|
E|-----------------------------------------------------|

      Em
E le genti che passeranno

O bella ciao, bella ciao, bella ciao ciao ciao
      Am             Em
E le genti che passeranno
      B7              Em
Mi diranno: "Che bel fior"

             Em
È questo il fiore del partigiano

O bella ciao, bella ciao, bella ciao ciao ciao
             Am             Em
È questo il fiore del partigiano
       B7          Em
Morto per la libertà

             C              Em
È questo il fiore del partigiano
       D          Em
Morto per la libertà

E|--7----7------8-7----7-------------------------7---------------|
B|----10------------10------------7-10-8-----10----8---7---------|
G|-----------------------9------9--------------------9-----------|
D|---------------------------------------------------------------|  (2x)
A|---------------------------------------------------------------|
E|---------------------------------------------------------------|

E|---------------------------------------------------------------|
B|---------------------------------------------------------------|
G|-------0----0---0-2---0--------0------0---4-2---0--------------|
D|---2-4---2----4-----4---2----2---4-0----4-----4---2------------|  (2x)
A|-2-------------------------2-----------------------------------|
E|---------------------------------------------------------------|

E|---0-0---0----0-0-2-3-0---0-0----------------------------------|
B|-------3----0-----------0-----3-2-3----------------------------|
G|---------------------------------------------------------------|
D|---------------------------------------------------------------|  (2x)
A|---------------------------------------------------------------|
E|---------------------------------------------------------------|

E|---------------------------------------------------------------|
B|---------------------------------------------------------------|
G|-------0----0---0-2---0--------0------0---4-2---0--------------|
D|---2-4---2----4-----4---2----2---4-0----4-----4---2------------|  (2x)
A|-2-------------------------2-----------------------------------|
E|---------------------------------------------------------------|

E|---0-0---0----0-0-2-3-0---0-0----------------------------------|
B|-------3----0-----------0-----3-2-3----------------------------|
G|---------------------------------------------------------------|
D|---------------------------------------------------------------|  (2x)
A|---------------------------------------------------------------|
E|---------------------------------------------------------------|

[Final]  Em
Compositor Tradicional Italiana
Colaboración y revision:
  • Lucas Kappaun
  • Carlos Moreira
16.077 reproducciones
    • ½ Tom
    • Am
    • Bbm
    • Bm
    • Cm
    • C#m
    • Dm
    • Ebm
    • Em
    • Fm
    • F#m
    • Gm
    • G#m
  • Adicionar à lista

    0 comentarios

    Mostrar mais comentários

    ¿Conseguiste tocar?

    51 Tocaron 12 Ainda não

    Grave um vídeo tocando Bella Ciao e mande pra gente!

    00:00 / 00:00
    outros vídeos desta música
    repetir qualidade Automático
    Outros vídeos desta música
    00:00 / 00:00
    Automático
    OK