Cifra Club

Jamás

Moderatto

Cifrado: Principal (guitarra y guitarra eléctrica)
tono: C
Intro: [C F G]


 Slider like a 'Sleepwalk' de Santo & Johny
E|-----------------------------|
B|-12b13-----------------------|
G|-------11b12-10-12b13r12-10--|
D|-----------------------------|
A|-----------------------------|
E|-----------------------------|

E|------------------------------------------------------------------|
B|-12b13p8----------------12b13p8-----------------------------------|
G|----------10-12b13r12------------10-12-9-12-9--------------9-9----|
D|----------------------------------------------10-----10-10-----10-|
A|------------------------------------------------12----------------|
E|------------------------------------------------------------------|


C                    F             C
Que no me falte tu cuerpo jamás, jamas
                   F               C
ni el calor de tu forma de amar, jamas
                  F
ni la ternura de tu despertar,
                  C F G
que no me falte jamas


C                 F          C
Que tu cariño no sea fugaz jamas
                        F               C
sin ti no habría encontrado esta paz, jamas
                      F               C
que me da calma y acaricia mi alma
                  C F G
que no me falta jamas


        C      Em        F           C
      Jamas, jamas he dejado de ser tuyo
          F         Em7     F         G
      lo digo con orgullo, tuyo nada mas
        C      Em       F            C
      jamas, jamas mis manos han sentido
            F           Em7
      mas piel que tu piel
                        F                 G
      porque hasta en sueños te he sido fiel


C                F             C
No dejare de quererte jamas, jamas
                  F             C
no dejaras de quererme jamas, jamas
               F
un amor sin cadenas ni edad
                   C F G
que no me falte jamas


        C      Em        F           C
      Jamas, jamas he dejado de ser tuyo
          F         Em7     F         G
      lo digo con orgullo, tuyo nada mas
        C      Em       F            C
      jamas, jamas mis manos han sentido
            F           Em7
      mas piel que tu piel
                        F                 G
      porque hasta en sueños te he sido fiel
Composición de Sesto
    • ½ Tono
    • A
    • Bb
    • B
    • C
    • Db
    • D
    • Eb
    • E
    • F
    • F#
    • G
    • Ab
  • Agregar a la lista

    0 comentarios

    Ver todos los comentarios

    ¿Lograste tocar?

    0 Tocaron 0 Aún no

    ¡Graba un video tocando Jamás y envíanoslo!

    00:00 / 00:00
    Outros vídeos desta música
    Repetir Calidad Automático
    Outros vídeos desta música
    00:00 / 00:00
    Automático
    OK