Cifra Club

Aprenda

No Podras

Moderatto

Tablatura: Principal (guitarra)
Tom: C
Tabbed by: tortulo
Email: *

Ok this is my first tab but i think it sounds ok. enjoy!

Tuning: EADGBe

Intro:

e|----------------------------------------------------------------------------------------------|          
B|----------------------------------------------------------------------------------------------|
G|------------7------5-------------------------------7------5-----------5~~~--------------------|
D|---2-----7--7---5--5-----7-----7/8/7\\5---2-----7--7---5--5-----------------7-----7/8/7\\5----|
A|---2-----7--5---5--3-----7-----7/8/7\\5---2-----7--5---5--3-----5//7--------7-----7/8/7\\5----|
E|---0-----5--5---3--3-----5----------------0-----5------3--------------------5-----------------|

e|----------------------------------------------------------------------------------------------|
B|----------------------------------------------------------------------------------------------|
G|------------7------5-------------------------------7------5-----------5~~~--------------------|
D|---2-----7--7---5--5-----7-----7/8/7\\5---2-----7--7---5--5-----------------7-----7/8/7\\5----|
A|---2-----7--5---5--3-----7-----7/8/7\\5---2-----7--5---5--3-----5//7--------7-----7/8/7\\5----|
E|---0-----5--5---3--3-----5----------------0-----5------3--------------------5-----------------|

During the verse, let the bass rolls, then play Intro again

Bridge:

e|----------------------------------------------------------------------------------------------------|
B|----------------------------------------------------------------------------------------------------|
G|----------------------------------------------------------------------------------------------------|
D|--5-----------------------5--------------------------5---------------------5------------------------|
A|--5------------1~---------5-----1~-----1~------------5------------1~-------5-----1~-----1~----------|
E|--3--3--1---3-------3--1--3--3------3-------3--1--3--3--3--1---3-----3--1--3--3------3------3--1/3--|

Chorus:

        Cada momento..... (get the time for this muting =P)

  P.M.      
e|-----------------------------|
B|-----------------------------|
G|---------------------2---7---|
D|-5---------5----2----2---7---|  
Compositor Alejandro Zepeda
865 reproducciones
    • ½ Tom
    • A
    • Bb
    • B
    • C
    • Db
    • D
    • Eb
    • E
    • F
    • F#
    • G
    • Ab
  • Adicionar à lista

    0 comentarios

    Mostrar mais comentários

    ¿Conseguiste tocar?

    0 Tocaron 0 Ainda não

    Grave um vídeo tocando No Podras e mande pra gente!

    00:00 / 00:00
    outros vídeos desta música
    repetir qualidade Automático
    Outros vídeos desta música
    00:00 / 00:00
    Automático

    Cifra Club Pro

    Aproveite o Cifra Club com benefícios exclusivos e sem anúncios
    7 dias grátis
    Cifra Club Pro
    Aproveite o Cifra Club com benefícios exclusivos e sem anúncios
    7 dias grátis
    OK