Cifra Club

Pacto entre los dos

Moderatto

Cifrado: Versão 2 (guitarra y guitarra eléctrica)
tono: Gm
Intro Motocicleta…

  Guitar 1
E|--------------------------------------------------------|
B|--------------------------------------------------------|
G|---------------------------------------------*----------|
D|-----7---8---7---5-------5-----------7---8---7---5------|
A|-5-5---5---5---5---8-7-8---8-7-3-5-5---5---5-------8-7--|
E|--------------------------------------------------------|
   pm-----------------------------------------|

  Guitar 1
E|--------------------------------------------------------|
B|--------------------------------------------------------|
G|--------------------------------------------------------|
D|---5-----------7---8---7---5-------5-----------7---8----|
A|-8---8-7-3-5-5---5---5---5---8-7-8---8-7-3-5-5---5---5--|
E|--------------------------------------------------------|
 |           pm-----------------------------------------| |
 |Guitar 2                                                |
E|--------------------------------------------------------|
B|--------------------------------------------------------|
G|---------------------------5-5--------------------------|
D|-----------7-7-------------3-3-----5-5-----7-7----------|
A|-----------5-5---------------------3-3-----5-5----------|
E|--------------------------------------------------------|

E|--------------------------------------------------------|
B|--------------------------------------------------------|
G|-*------------------------------------------------------|
D|-7---5-------5-----------7---8---7---5-------5----------|
A|-------8-7-8---8-7-3-5-5---5---5---5---8-7-8---8-7-3----|
E|--------------------------------------------------------|
 |                     pm-------------------------------- |
 |                                                        |
E|--------------------------------------------------------|
B|--------------------------------------------------------|
G|-----5-5-----------------------------5-5----------------|
D|-----3-3-----5-5-----7-7-------------3-3-----5-5--------|
A|-------------3-3-----5-5---------------------3-3--------|
E|--------------------------------------------------------|

E|----------------------------------|---------------------|
B|----------------------------------|---------------------|
G|-------------*--------------------|---------------------|
D|-----7---8---7---5-------5--------|---------------------|
A|-5-5---5---5-------8-7-8---8-7-3--|---------------------|
E|----------------------------------|-0-0-2-3-0-0-2-3-0-0-|
E|-----------| |
 |                                                        |
E|--------------------------------------------------------|
B|--------------------------------------------------------|
G|-----------------5-5------------------------------------|
D|-7-7-------------3-3-----5-5----------------------------|
A|-5-5---------------------3-3--------5-------------------|
E|--------------------------------------------------------|

E|--------------------------------------------------------|
B|--------------------------------------------------------|
G|--------------------------------------------------------|
D|--------------------------------------------------------|
A|-------------3-3-5-6-3-3-5-6-3-3-5-6-3-3-5-6------------|
E|-2-3-0-0-2-3---------------------------------0-0-2-3-0--|

E|--------------------------------------------------------|
B|--------------------------------------------------------|
G|--------------------------------------------------------|
D|--------------------------------------------------------|
A|-------------------------------3-3-5-6-3-3-5-6-3-3-5-6--|
E|-0-2-3-0-0-2-3-0-0-2-3-0-0-2-3--------------------------|

             Verso 1 (0.41)
E|---------|----------------------------------------------|
B|---------|----------------------------------------------|
G|---------|----------------------------------------------|
D|---------|---------------------------------5-5-7-8-5-5--|
A|-3-3-5-6-|-0-0-2-3-0-0-2-3-0-0-2-3-0-0-2-3-3-3-5-6-3-3--|
E|---------|-0-0-2-3-0-0-2-3-0-0-2-3-0-0-2-3--------------|
             pm-------------------------------------------

E|--------------------------------------------------------|
B|--------------------------------------------------------|
G|--------------------------------------------------------|
D|-7-8-5-5-7-8-5-5-7-8---------------------------------5--|
A|-5-6-3-3-5-6-3-3-5-6-0-0-2-3-0-0-2-3-0-0-2-3-0-0-2-3-3--|
E|---------------------0-0-2-3-0-0-2-3-0-0-2-3-0-0-2-3----|
  pm------------------------------------------------------

E|--------------------------------------------------------|
B|--------------------------------------------------------|
G|--------------------------------------------------------|
D|-5-7-8-5-5-7-8-5-5-7-8-5-5-7-8-0-0-2-3-0-0-2-3-0-0-2-3--|
A|-3-5-6-3-3-5-6-3-3-5-6-3-3-5-6--------------------------|
E|--------------------------------------------------------|
  pm---------------------------|

E|--------------------------------------------------------|
B|--------------------------------------------------------|
G|--------------------------------------------------------|
D|-0-0-2-3---------------------------------0-0-2-3-0-0-2--|
A|---------3-3-5-6-3-3-5-6-3-3-5-6-3-3-5-6----------------|
E|--------------------------------------------------------|

E|--------------------------------------------------------|
B|--------------------------------------------------------|
G|--------------------------------------------------------|
D|-3-0-0-2-3-0-0-2-3--------------------------------------|
A|-------------------3-3-5-6-3-3-5-6-3-5---3-5b6--3-------|
E|--------------------------------------------------------|

  Coro (1.11)
E|-----3---3----------------3---3----------------3---3----|
B|----3------3-------------3------3-------------3------3--|
G|---3----------5---------3----------5---------3----------|
D|-5------------5---3---5------------5---3---5------------|
A|-5------------3---1-3-5------------3---1-3-5------------|
E|-5------------------3-5------------------3-5------------|

                              Verso 2 (1.40)
E|--------------3---3--------|----------------------------|
B|-------------3------3------|----------------------------|
G|-5----------3----------5---|----------------------------|
D|-5---3---5-------------5---|----------------------------|
A|-3---1-3-5-------------3---|-0-0-2-3-0-0-2-3-0-0-2-3-0--|
E|-------3-5-----------------|-0-0-2-3-0-0-2-3-0-0-2-3-0--|
                               pm-------------------------

E|--------------------------------------------------------|
B|--------------------------------------------------------|
G|--------------------------------------------------------|
D|-------5-5-7-8-5-5-7-8-5-5-7-8-5-5-7-8------------------|
A|-0-2-3-3-3-5-6-3-3-5-6-3-3-5-6-3-3-5-6-0-0-2-3-0-0-2-3--|
E|-0-2-3---------------------------------0-0-2-3-0-0-2-3--|
   pm-----------------------------------------------------

E|--------------------------------------------------------|
B|--------------------------------------------------------|
G|--------------------------------------------------------|
D|-----------------5-5-7-8-5-5-7-8---------------0-0-2-3--|
A|-0-0-2-3-0-0-2-3-3-3-5-6-3-3-5-6-3-5b6-3-5b6-3----------|
E|-0-0-2-3-0-0-2-3----------------------------------------|
   pm----------------------------|

E|--------------------------------------------------------|
B|--------------------------------------------------------|
G|--------------------------------------------------------|
D|-0-0-2-3-0-0-2-3-0-0-2-3--------------------------------|
A|-------------------------3-3-5-6-3-3-5-6-3-3-5-6-3-3-5--|
E|--------------------------------------------------------|

E|--------------------------------------------------------|
B|--------------------------------------------------------|
G|--------------------------------------------------------|
D|--------------------------------------------------------|
A|-6---------------------------------3-3-5-6-3-3-5-6-3-3--|
E|---0-0-2-3-0-0-2-3-0-0-2-3-0-0-2-3----------------------|

E|-------------|
B|-------------|
G|-------------|
D|-------------|
A|-5-6-3-3-5-6-|
E|-------------|

  Coro (2.10)
E|-----3---3----------------3---3----------------3---3----|
B|----3------3-------------3------3-------------3------3--|
G|---3----------5---------3----------5---------3----------|
D|-5------------5---3---5------------5---3---5------------|
A|-5------------3---1-3-5------------3---1-3-5------------|
E|-5------------------3-5------------------3-5------------|

                              Interlude (2.39)
E|--------------3---3--------|----------------------------|
B|-------------3------3------|----------------------------|
G|-5----------3----------5---|---------x-x----------------|
D|-5---3---5-------------5---|---------x-x----------------|
A|-3---1-3-5-------------3---|-3-5-5-5-x-x-0--3-5-5-0-3-5-|
E|-------3-5-----------------|---------x-x----------------|
                                           pm

E|--------------------------------------------------------|
B|--------------------------------------------------------|
G|-------------x-x---------------------------x-x----------|
D|-------------x-x---------------------------x-x----------|
A|-5-----------x-x-------------------3-5-5-5-x-x-0-3-5-5--|
E|---0-3-5-3-5-x-x-0-3-5-5-3-6-5-3-0---------x-x----------|

E|--------------------------------------------------------|
B|-----------------------------------------------x-x------|
G|-------------------x-x-----------------5-7-7-7-x-x------|
D|-------------------x-x-------------------------x-x-0----|
A|-0-3-5-5-----------x-x----------------------------------|
E|---------0-3-5-3-5-x-x-0-3-5-3-6-5-3-0------------------|
                                                     pm

E|--------------------------------------------------------|
B|----------------------------x-x-x-----------------------|
G|-5-7-7----5-7-7-------------x-x-x-----------------------|
D|-------0--------0---3-5-3-5-x-x-x-0--3-5-5-3-6-5-3-0----|
A|----------------------------x-x-x-----------------------|
E|--------------------------------------------------------|
         pm       pm

E|--------------------------------------------------------|
B|--------------------------------------------------------|
G|--5-7-7-7-----0-5-7-7-----5-7-7-------------------------|
D|-----------------------0--------0--3-5-3-5-------0--3-5-|
A|--------------------------------------------------------|
E|--------------------------------------------------------|

E|--------------------------------------------------------|
B|--------------------------------------------------------|
G|-------------5-7-7-7-----0-5-7-7-----5-7-7--------------|
D|-5-3-6-5-3-0----------------------0--------0--3-5-3-5---|
A|--------------------------------------------------------|
E|--------------------------------------------------------|

                          Bajo (3.16)
E|---------------------|----------------------------------|
B|---------------------|----------------------------------|
G|---------------------|----------------------------------|
D|-0--3-5-5-3-6-5-3-0--|----------------------------------|
A|---------------------|----------------------------------|
E|---------------------|----------------------------------|
Composición de A. Diaz, Thalía
    • ½ Tono
    • Am
    • Bbm
    • Bm
    • Cm
    • C#m
    • Dm
    • Ebm
    • Em
    • Fm
    • F#m
    • Gm
    • G#m
  • Agregar a la lista

    0 comentarios

    Ver todos los comentarios

    ¿Lograste tocar?

    0 Tocaron 0 Aún no

    ¡Graba un video tocando Pacto entre los dos y envíanoslo!

    00:00 / 00:00
    Outros vídeos desta música
    Repetir Calidad Automático
    Outros vídeos desta música
    00:00 / 00:00
    Automático
    OK