Cifra Club

Si Mi Delito Es Rockear

Moderatto

Cifrado: Principal (guitarra y guitarra eléctrica)
tono: D
                    INTRO
<><><><><><><><><><><><><><><><><><><><><><><><>

 GUITARRA 1
 (0:00)
   D         A         B         G
E|-----------------------------------------|
B|-----------------------------------------|
G|---7-9-7-----7-9-7-----7-9-7-----7-9-7---|
D|--7-7-7-7---7-7-7-7---7-7-7-7---7-7-7-7--|
A|-5---------------------------------------|
E|-----------5---------7---------3---------|

 GUITARRA 1
 (0:07)
   D         A         B         G     A
E|------------------------------------------|
B|------------------------------------------|
G|---7-9-7-----7-9-7-----7-9-7--------------|
D|--7-7-7-7---7-7-7-7---7-7-7-7--5-5-X-5-5--|
A|-5-----------------------------5-5-X-5-5--|
E|-----------5---------7---------3-3-X-3-3--|
 |GUITARRA 2                                |
E|------------------------------------------|
B|------------------------------------------|
G|------------------------------------------|
D|-------------------------------5-5-X-5-5--|
A|-------------------------------5-5-X-5-5--|
E|-------------------------------3-3-X-3-3--|

<><><><><><><><><><><><><><><><><><><><><><><><>
                    VERSO
<><><><><><><><><><><><><><><><><><><><><><><><>

  GUITARRA 1
  (0:14)
   D         A         B         G
E|-----------------------------------------|
B|-----------------------------------------|
G|---7-9-7-----7-9-7-----7-9-7-----7-9-7---|
D|--7-7-7-7---7-7-7-7---7-7-7-7---7-7-7-7--| X2
A|-5---------------------------------------|
E|-----------5---------7---------3---------|

  GUITARRA 2
E|---------------------------------------------|
B|----------------------------------------7----|
G|--7-7-9-9-7--7-7-9-9-7--7-7-9-9-7--7-7-9-9-7-|
D|--7-7-7-7-7--7-7-7-7-7--7-7-7-7-7--7-7-------| X2
A|---------------------------------------------|
E|---------------------------------------------|
    . . . . .  . . . . .  . . . . .  . .

<><><><><><><><><><><><><><><><><><><><><><><><>
                  PD-C ORO
<><><><><><><><><><><><><><><><><><><><><><><><>

  GUITARRA 1
  (0:28)
   G         A         B         D
E|-----------------------------------------|
B|-----------------------------------------|
G|---7-9-7-----7-9-7-----7-9-7-----7-9-7---|
D|--7-7-7-7---7-7-7-7---7-7-7-7---7-7-7-7--|
A|-------------------------------5---------|
E|-3---------5---------7-------------------|

  (0:35)
   G         A                        D
E|----------------------------------------|
B|----------------------------------------|
G|---7-9-7-----7-9-7------------------7---|
D|--7-7-7-7---7-7-7-7-----------------7---|
A|------------------------5------5----5---|
E|-3---------5----------3---3--2---2------|

  GUITARRA 2
  (0:28)
E|------------------------------------------|
B|------------------------------------------|
G|-7-7--797-7-7--797-7-7--797--7X-9X-11X-9X-|
D|-7-7--777-7-7--777-7-7--777--7X-7X-7X--7X-|
A|------------------------------------------|
E|------------------------------------------|

  (0:35)
E|----------------------------------------|
B|----------------------------------------|
G|-7-7--797-7-7--797----------------7-----|
D|-7-7--797-7-7--797----------------7-----|
A|----------------------5------5----5-----|
E|--------------------3---3--2---2--------|

<><><><><><><><><><><><><><><><><><><><><><><><>
                      CORO
<><><><><><><><><><><><><><><><><><><><><><><><>
  GUITARRA 1
  (0:42)
   G         A         B    A    G        G
E|------------------------------------------|
B|------------------------------------------|
G|---7-9-7-----7-9-7-----7----7----7-9-7----|
D|--7-7-7-7---7-7-7-7---7-7--7-7--7-7-7-7-5-|
A|----------------------------------------5-|
E|-3---------5---------7----5----3--------3-|
 |GUITARRA 2                                |
E|------------------------------------------|
B|------------------------------------------|
G|------------------------------------------|
D|-5~--------7~--------9----7----5~-------5-|
A|-5~--------7~--------9----7----5~-------5-|
E|-3~--------5~--------7----5----3~-------3-|

  GUITARRA 1
  (0:50)
E|---------------------------|
B|---------------------------|
G|----------------------7----|
D|--7-------------------7----|
A|--7------5------5-----5----|
E|--5----3---3--2---2--------|
 |GUITARRA 2                 |
E|---------------------------|
B|---------------------------|
G|----------------------7----|
D|--7-------------------7----|
A|--7------5------5-----5----|
E|--5----3---3--2---2--------|


<><><><><><><><><><><><><><><><><><><><><><><><>
                      PUENTE
<><><><><><><><><><><><><><><><><><><><><><><><>

  GUITARRA 1
  (0:56)
   D         A         B         G
E|-----------------------------------------|-------------|
B|-----------------------------------------|-------------|
G|---7-9-7-----7-9-7-----7-9-7-----7-9-7---|-------------|
D|--7-7-7-7---7-7-7-7---7-7-7-7---7-7-7-7--|--5-5-X-5-5--|
A|-5---------------------------------------|--5-5-X-5-5--|
E|-----------5---------7---------3---------|--3-3-X-3-3--|
 |GUITARRA 2                               |             |
E|---------------21-21---------------------|-------------|
B|-----------------------------------------|-------------|
G|-----------------------------------------|-------------|
D|-----------------------------------------|--5-5-X-5-5--|
A|-----------------------------------------|--5-5-X-5-5--|
E|-----------------------------------------|--3-3-X-3-3--|


<><><><><><><><><><><><><><><><><><><><><><><><>
                    VERSO
<><><><><><><><><><><><><><><><><><><><><><><><>

  GUITARRA 1
  (1:03)
   D         A         B         G
E|-----------------------------------------|
B|-----------------------------------------|
G|---7-9-7-----7-9-7-----7-9-7-----7-9-7---|
D|--7-7-7-7---7-7-7-7---7-7-7-7---7-7-7-7--| X2
A|-5---------------------------------------|
E|-----------5---------7---------3---------|

  GUITARRA 2
  (1:03)
E|---------------------------------------------|
B|----------------------------------------7----|
G|--7-7-9-9-7--7-7-9-9-7--7-7-9-9-7--7-7-9-9-7-|
D|--7-7-7-7-7--7-7-7-7-7--7-7-7-7-7--7-7-------| X2
A|---------------------------------------------|
E|---------------------------------------------|
    . . . . .  . . . . .  . . . . .  . .

<><><><><><><><><><><><><><><><><><><><><><><><>
                  PD-C ORO
<><><><><><><><><><><><><><><><><><><><><><><><>

  GUITARRA 1
  (1:17)
   G         A         B         D
E|-----------------------------------------|
B|-----------------------------------------|
G|---7-9-7-----7-9-7-----7-9-7-----7-9-7---|
D|--7-7-7-7---7-7-7-7---7-7-7-7---7-7-7-7--|
A|-------------------------------5---------|
E|-3---------5---------7-------------------|

  (1:23)
   G         A                        D
E|----------------------------------------|
B|----------------------------------------|
G|---7-9-7-----7-9-7------------------7---|
D|--7-7-7-7---7-7-7-7-----------------7---|
A|------------------------5------5----5---|
E|-3---------5----------3---3--2---2------|

  GUITARRA 2
  (1:17)
E|------------------------------------------|
B|------------------------------------------|
G|-7-7--797-7-7--797-7-7--797--7X-9X-11X-9X-|
D|-7-7--777-7-7--777-7-7--777--7X-7X-7X--7X-|
A|------------------------------------------|
E|------------------------------------------|

  (1:23)
E|----------------------------------------|
B|----------------------------------------|
G|-7-7--797-7-7--797----------------7-----|
D|-7-7--777-7-7--777----------------7-----|
A|----------------------5------5----5-----|
E|--------------------3---3--2---2--------|

<><><><><><><><><><><><><><><><><><><><><><><><>
                      CORO
<><><><><><><><><><><><><><><><><><><><><><><><>
  GUITARRA 1
  (1:30)
   G         A         B    A    G
E|-----------------------------------------|
B|-----------------------------------------|
G|---7-9-7-----7-9-7-----7----7----7-9-7---|
D|--7-7-7-7---7-7-7-7---7-7--7-7--7-7-7-7--|
A|-----------------------------------------|
E|-3---------5---------7----5----3---------|
 |GUITARRA 2                               |
E|-----------------------------------------|
B|-----------------------------------------|
G|-----------------------------------------|
D|-5~--------7~--------9----7----5~--------|
A|-5~--------7~--------9----7----5~--------|
E|-3~--------5~--------7----5----3~--------|

  GUITARRA 1
  (1:38)
   G         A         D         D
E|-----------------------------------------|
B|-----------------------------------------|
G|---7-9-7-----7-9-7-----7-9-7---777777----|
D|--7-7-7-7---7-7-7-7---7-7-7-7--777777----|
A|---------------------5---------555555----|
E|-3---------5-----------------------------|
 |GUITARRA 2                               |
E|-----------------------------------------|
B|-----------------------------------------|
G|---------------------7-77-77-7-777777----|
D|-5---------7---------7-77-77-7-777777----|
A|-5---------7---------5-55-55-5-555555----|
E|-3---------5-----------------------------|

  GUITARRA 1
  (1:44)
   G         A         B     A     G           G    A
E|------------------------------------------|----------|
B|------------------------------------------|----------|
G|---7-9-7-----7-9-7-----7-----7-----7-9-7--|----------|
D|--7-7-7-7---7-7-7-7---7-7---7-7---7-7-7-7-|--5----7--|
A|------------------------------------------|--5----7--|
E|-3---------5---------7-----5-----3--------|--3----5--|
 |GUITARRA 2                                |          |
E|------------------------------------------|----------|
B|------------------------------------------|----------|
G|------------------------------------------|----------|
D|-XX-5XX5XXXX-7XX7-XXXX-9-XX7-XXXX-5XX5----|--5----7--|
A|-XX-5XX5XXXX-7XX7-XXXX-9-XX7-XXXX-5XX5----|--5----7--|
E|-XX-3XX3XXXX-5XX5-XXXX-7-XX5-XXXX-3XX3----|--3----5--|


  GUITARRA 1
  (1:54)
E|-----------------------------|
B|-----------------------------|
G|---------------------7-------|
D|---------------------7-------|
A|------5-------5------5-X//X--|
E|-//-3---3---2----------X//X--|
 |GUITARRA 2                   |
E|-----------------------------|
B|-----------------------------|
G|---------------------7~------|
D|---------------------7~------|
A|------5-------5------5~------|
E|----3---3---2---2------------|

<><><><><><><><><><><><><><><><><><><><><><><><>
                   PUENTE 2
<><><><><><><><><><><><><><><><><><><><><><><><>


  GUITARRA 1
  (1:58)
    E        G        D        A
E|---------------------------------------|
B|---------------------------------------|
G|--------------------77777777-----------|
D|--22222222-55555555-77777777-77777777--|
A|--22222222-55555555-55555555-77777777--|
E|--00000000-33333333----------55555555--|
 |  ........ ........ ........ ........  |
 |GUITARRA 2                             |
E|---------------------------------------|
B|---------------------------------------|
G|--------------------77777777-----------|
D|--22222222-55555555-77777777-77777777--|
A|--22222222-55555555-55555555-77777777--|
E|--00000000-33333333----------55555555--|
    ........ ........ ........ ........

  GUITARRA 1
  (2:05)
    E        G                        D
E|---------------------------------------|
B|---------------------------------------|
G|------------------------------------7--|
D|--22222222-55555555-----------------7--|
A|--22222222-55555555----5-------5----5--|
E|--00000000-33333333--3---3---2---2-----|
 |GUITARRA 2                             |
E|-----------------------------------10~-|
B|---------------------------------------|
G|--7--7--797--7--7--797---7v------------|
D|--7--7--777--7--7--777---7v------------|
A|---------------------------------------|
E|---------------------------------------|
    .  .  ...  .  .  ...
<><><><><><><><><><><><><><><><><><><><><><><><>
                    PUENTE 3
<><><><><><><><><><><><><><><><><><><><><><><><>


  GUITARRA 1
  (2:12)
   G        A        B       D
E|-----------------------------------|
B|-----------------------------------|
G|-----------------------------------|
D|-----------------------------------| X4
A|---------------------------5555555-|
E|-33333333-55555555-7777777---------|
   ........ ........ ....... .......

  GUITARRA 2
  (2:19)
E|--------------------------------------|
B|--------------------------------7-----|
G|-----7-797----7-797----7-797---7--9-7-|
D|--9-9------9-9------9-9-----9-9-------| X3
A|--------------------------------------|
E|--------------------------------------|
    . .. ... . .. ... . .. .... .


<><><><><><><><><><><><><><><><><><><><><><><><>
                      CORO
<><><><><><><><><><><><><><><><><><><><><><><><>
  GUITARRA 1
  (2:40)
   G         A         B    A    G        G
E|------------------------------------------|
B|------------------------------------------|
G|---7-9-7-----7-9-7-----7----7----7-9-7----|
D|--7-7-7-7---7-7-7-7---7-7--7-7--7-7-7-7-5-|
A|----------------------------------------5-|
E|-3---------5---------7----5----3--------3-|
 |GUITARRA 2                                |
E|------------------------------------------|
B|------------------------------------------|
G|------------------------------------------|
D|-5~--------7~--------9----7----5~-------5-|
A|-5~--------7~--------9----7----5~-------5-|
E|-3~--------5~--------7----5----3~-------3-|


GUITARRA 1
  (2:48)
E|---------------------------|-------------------------|
B|---------------------------|-------------------------|
G|----------------------7----|--------------------7----|
D|--7-------------------7----|--------------------7----|
A|--7------5------5-----5----|------5------5------5----|
E|--5----3---3--2---2--------|----3---3--2---2---------|
 |GUITARRA 2                 |
E|---------------------------|-------------------------|
B|---------------------------|-------------------------|
G|----------------------7----|--------------------7----|
D|--7-------------------7----|--------------------7----|
A|--7------5------5-----5----|------5------5------5----|
E|--5----3---3--2---2--------|----3---3--2---2---------|


<><><><><><><><><><><><><><><><><><><><><><><><>
                      FIN
<><><><><><><><><><><><><><><><><><><><><><><><>


  GUITARRA 1
  (2:57)
E|--------------|
B|--------------|
G|---------7~---|
D|---7~----7~---|
A|---7~----5~---|
E|---5~---------|
 |GUITARRA 2    |
E|--------------|
B|--------------|
G|---------7~---|
D|---7~----7~---|
A|---7~----5~---|
E|---5~---------|
Composición de Jay de la Cueva
7 vistas
    • ½ Tono
    • A
    • Bb
    • B
    • C
    • Db
    • D
    • Eb
    • E
    • F
    • F#
    • G
    • Ab
  • Agregar a la lista

    0 comentarios

    Ver todos los comentarios

    ¿Lograste tocar?

    0 Tocaron 0 Aún no

    ¡Graba un video tocando Si Mi Delito Es Rockear y envíanoslo!

    00:00 / 00:00
    Outros vídeos desta música
    Repetir Calidad Automático
    Outros vídeos desta música
    00:00 / 00:00
    Automático
    OK