Cifra Club

Brother Louie

Modern Talking

Cifrado: Principal (guitarra y guitarra eléctrica)
tono: Ebm
[Intro]

          D#m               G#m
E|------14--11------14--11------14--11--9--11--9--11----------|
B|--11----------11----------11------------------------12------|
G|------------------------------------------------------------|
D|------------------------------------------------------------|
A|------------------------------------------------------------|
E|------------------------------------------------------------|

          C#                D#m
E|------14--11------14--11------14--11--9--11--9--11----------|
B|--12----------12----------12------------------------11------|
G|------------------------------------------------------------|
D|------------------------------------------------------------|
A|------------------------------------------------------------|
E|------------------------------------------------------------|

 D#m                            A#m                                      B
Deep... love is a burning fire stay... 'cause then the flames grow higher babe
                                         F#     C#
Don't let him steal your heart... it's easy... easy
 D#m                                 A#m                            G#m
Girl... this game can't last forever why... we cannot live together try
                                  C#
Don't let him take your love from me

            D#m                       G#m
You're no good can't you see Brother Louie Louie Louie
       C#                          D#m
I'm in love set you free oh she's only looking to me
      D#m                           G#m
Only love breaks her heart Brother Louie Louie Louie
      C#                       D#m
Only love's paradise oh she's only looking to me

         D#m                          G#m
Brother Louie Louie Louie... oh she's only looking to me
       C#                  D#m         B  C#
Oh let it Louie... she is under cover
                                 G#m
Brother Louie Louie Louie... oh doing what he's doing
      C#                       D#m          B  C#
So leave it Louie... 'cause I'm her lover

          D#m               G#m
E|------14--11------14--11------14--11--9--11--9--11----------|
B|--11----------11----------11------------------------12------|
G|------------------------------------------------------------|
D|------------------------------------------------------------|
A|------------------------------------------------------------|
E|------------------------------------------------------------|

          C#                D#m
E|------14--11------14--11------14--11--9--11--9--11----------|
B|--12----------12----------12------------------------11------|
G|------------------------------------------------------------|
D|------------------------------------------------------------|
A|------------------------------------------------------------|
E|------------------------------------------------------------|

 D#m                                    A#m
Stay... 'cause this boy wants to gamble stay
                                 B                             F#       C#
Love is more than he can handle girl... come on stay by me - forever... ever
 D#m                            A#m
Why... does he go on pretending that
                           G#m                                      C#
His love is never ending babe... don't let him steal your love from me

            D#m                       G#m
You're no good can't you see Brother Louie Louie Louie
       C#                          D#m
I'm in love set you free oh she's only looking to me
      D#m                           G#m
Only love breaks her heart Brother Louie Louie Louie
      C#                       D#m
Only love's paradise oh she's only looking to me

         D#m                          G#m
Brother Louie Louie Louie... oh she's only looking to me
       C#                  D#m         B  C#
Oh let it Louie... she is under cover
                                 G#m
Brother Louie Louie Louie... oh doing what he's doing
      C#                       D#m          B  C#
So leave it Louie... 'cause I'm her lover

          D#m               G#m
E|------14--11------14--11------14--11--9--11--9--11----------|
B|--11----------11----------11------------------------12------|
G|------------------------------------------------------------|
D|------------------------------------------------------------|
A|------------------------------------------------------------|
E|------------------------------------------------------------|

          C#                D#m
E|------14--11------14--11------14--11--9--11--9--11----------|
B|--12----------12----------12------------------------11------|
G|------------------------------------------------------------|
D|------------------------------------------------------------|
A|------------------------------------------------------------|
E|------------------------------------------------------------|

         D#m                          G#m
Brother Louie Louie Louie... oh she's only looking to me
       C#                  D#m         B  C#
Oh let it Louie... she is under cover
                                 G#m
Brother Louie Louie Louie... oh doing what he's doing
      C#                       D#m          B  C#
So leave it Louie... 'cause I'm her lover
00:00 / 00:00
Otros videos de esta canción
Repetir
Otros videos de esta canción
Composición de Dieter Bohlen
Colaboración y revisión:
2.791 exhibiciones
    • ½ Tono
    • Am
    • Bbm
    • Bm
    • Cm
    • C#m
    • Dm
    • Ebm
    • Em
    • Fm
    • F#m
    • Gm
    • G#m
  • Agregar a la lista
    00:00 / 00:00
    OK