Cifra Club

Lady (Hear Me Tonight)

Modjo

Chords: Principal (acoustic and electric guitars)
tone: C
    Am7                      Dm7
e|--7--7--8--8--7--7--8--8---7--7--8--8--7--7--8--8------
B|--5--5--5--5--5--5--5--5---6--6--6--6--6--6--6--6------
G|--5--5--5--5--5--5--5--5---5--5--5--5--5--5--5--5------
D|--5--5--5--5--5--5--5--5---7--7--7--7--7--7--7--7------
A|--7--7--7--7--7--7--7--7---5--5--5--5--5--5--5--5------
E|--5--5--5--5--5--5--5--5-------------------------------

    E7
e|--7--7--8--8--7--7--8--8----
B|--9--9--9--9--9--9--9--9----
G|--7--7--7--7--7--7--7--7----
D|--9--9--9--9--9--9--9--9----
A|--7--7--7--7--7--7--7--7----
E|----------------------------

Am7
 Lady... hear me tonight
 'cos my feelin is just so right
Dm7
 as we dance by the moonlight
E7
 can't you see you're my delight
Am7
 Lady... I just feel like
 I won't get you out of my mind
Dm7
 I feel loved for the first time
E7
 and I know that it's true I can tell by the look in your eyes

Refrão

Am7                             F7      
 Lady... hear me tonight
Dm7                              E7
 'cos my feelin is just so right
00:00 / 00:00
Other videos of this song
Repeat
Other videos of this song
Composed by Romain Tranchart / Yann Destal
Collaboration and Review:
  • Vinicius Santos
  • Fabrício Conrado
11.276 views
    • ½ Tone
    • A
    • Bb
    • B
    • C
    • Db
    • D
    • Eb
    • E
    • F
    • F#
    • G
    • Ab
  • Add to list
    00:00 / 00:00
    OK