Cifra Club

Ingrata

Moenia

Cifrado: Principal (guitarra y guitarra eléctrica)
tono: C
(Empieza Guitarra)     Y por eso   ahora    Que te veo a lo lejos
E|-----------------------------------------------------------------|
B|-----8-8-8--6-6--5-5-----5-5-5--3-3--1-1------1-1-1--3-5---6-6---|
G|-----9-9-9--7-7--5-5-----5-5-5--4-4--2-2------2-2-2--4-5---7-7---|
D|-----------------------------------------------------------------|
A|-----------------------------------------------------------------|
E|-----------------------------------------------------------------|

 No me queda mas remedio
 Que recordarte           Y por eso a ti, Chiquita de mi corazon
E|-----------------------------------------------------------------|
B|-----6-6-6--5-5--3-3----------------8-8-8--6-6--5-5--------------|
G|-----7-7-7--5-5--4-4----------------9-9-9--7-7--5-5--------------|
D|-----------------------------------------------------------------|
A|-----------------------------------------------------------------|
E|-----------------------------------------------------------------|

 Te canto esta tonada    Que viene de mi alma, y es de tu creacion.
E|-----------------------------------------------------------------|
B|---5-5-5--3-3--1-1-----1-1-1--3-5---6-6----6-6-6-5/6/8--8-8-8~~x-|
G|---5-5-5--4-4--2-2-----2-2-2--4-5---7-7----7-7-7-5/7/9--9-9-9~~x-|
D|-----------------------------------------------------------------|
A|-----------------------------------------------------------------|
E|-----------------------------------------------------------------|

  C Am F G

        C
  Tu me decias
        Am
 Que me querias
        F
 Y yo sabia
        G
 Que me mentias


        C
 Eres espina
       Am
 De rosa roja
        F
 Que me lastima
      G
 Y me enoja

CORO x 2
           C       Am
  Ingrata mujeeeeeerrr
              F
  Yo te di mi querer
                     G
  Y lo hechaste a perder


   C Am F G

          C
 No se te olvide
         Am
 Que fui el primero
         F
 Tome tu mano
       G
 En el pesero

       C
 Era domingo
           Am
 Te habias bañado
         F
 Tu pelo suelto
        G
 Recien peinado


 CORO x 2

             C   Am     F           G
    A perder.....       A perder.....
             C   Am     F                          G
    A perder            Y por eso ahora  Cuando lo años han pasado
             C          Am                     F
    Me doy cuenta que tu, eres la unica, la primera, la mas hermosa,
                     G                    C
    Eres espina, de rosa roja.




     C     Am     F     G
E|----0-----0------0-----0----|
B|----1-----1------1-----3----|
G|----0-----2------2-----4----|
D|----2-----2------3-----5----|
A|----3-----0------3-----5----|
E|----x-----x------x-----x----|
00:00 / 00:00
Otros videos de esta canción
Repetir
Otros videos de esta canción
Compositor no encontrado.
    • ½ Tono
    • A
    • Bb
    • B
    • C
    • Db
    • D
    • Eb
    • E
    • F
    • F#
    • G
    • Ab
  • Agregar a la lista

    0 comentarios

    Ver todos los comentarios

    ¿Lograste tocar?

    0 Tocaron 0 Aún no

    ¡Graba un video tocando Ingrata y envíanoslo!

    00:00 / 00:00
    OK