Cifra Club

Wild Atheart

The Moffatts

Cifrado: Principal (guitarra y guitarra eléctrica)
tono: E
Person: Holly P



tab: 





This song is fairly easy to play.  lyrics are from *.
I've seen them play live twice, not a bad band at all!

It's basically the same power chords throughout the song.
Only bass during the verses, but it sounds okay to keep playing the
guitar part.

RIFF 1

  E     G     A      C    
--x-x---x-x---x-x---x--x--x--x--
--x-x---x-x---x-x---x--x--x--x--
--x-x---x-x---x-x---x--x--x--x--
--2-2---5-5---7-7---10-10-10-10-
--2-2---5-5---5-5---10-10-10-10-
--0-0---3-3---5-5---8--8--8--8--

RIFF 2 - hold each chord for 8 beats

  C      B
--x------x-----
--x------x-----
--x------x-----
-10------9-----
-10------7-----
--8------7-----

(scrub between E + G and A + C. 
I don't know if that's the right thing to call it, but it's 
like what you do for the chords in smells like teen spirit by nirvana.
come to think of it, the pattern for chords is very much alike to
SLTS.)

[intro] - play riff 1 twice

[riff 1] I don't like sitting around
[riff 1] I don't like beating the ground
[riff 1] I wanna hear the sound
[riff 1] Of me and you just runnin' around

[riff 1] I'm gonna make it
[riff 1]I'm gonna break it
[riff 2][C]I'm gonna fly in the sky everywhere that I [B]go

[riff 1] I wanna be wild
[riff 1] I wanna be wild
[riff 1] I wanna be wild
[riff 1] wild at heart

[riff 1] I never think about when
[riff 1] I only think about where
[riff 1] There's nothing I wouldn't do
[riff 1] So don't tell me about any rules

[riff 1] I'm gonna make it, I'm gonna break it
[riff 2][C]I'm gonna fly in the sky everywhere that I [B]go

[riff 1] I wanna be wild
[riff 1] I wanna be wild     x  2
[riff 1] I wanna be wild
[riff 1] wild at heart 

wild at heart [start solo]

SOLO:
---------------------------------------------------12~-11-12~--
-----------------------------------------8-10-12~--------------
-----------6--7~-6------------6-7-9~--11-----------------------
--7~---7~----------7~-----7~-----------------------------------
-----7----------------5-7--------------------------------------
---------------------------------------------------------------


[riff 1] I don't like sitting around
[riff 1] I don't like beating the ground
[riff 2][C]I'm gonna fly in the sky everywhere that I [B]go

[riff 1] I wanna be wild
[riff 1] I wanna be wild     x  2
[riff 1] I wanna be wild
[riff 1] wild at heart    

[riff 1] wild at heart  x   5

----------
--3-------
---1------ (played in the fading of the song)
----------
----------
----------

[song ends]

~Holly P
*
http://*

Wild at 
Compositor não encontrado.
12 vistas
    • ½ Tono
    • A
    • Bb
    • B
    • C
    • Db
    • D
    • Eb
    • E
    • F
    • F#
    • G
    • Ab
  • Agregar a la lista

    0 comentarios

    Ver todos los comentarios

    ¿Lograste tocar?

    0 Tocaron 0 Aún no

    ¡Graba un video tocando Wild Atheart y envíanoslo!

    00:00 / 00:00
    Outros vídeos desta música
    Repetir Calidad Automático
    Outros vídeos desta música
    00:00 / 00:00
    Automático
    OK