Cifra Club

Protect And Serve

Moistboyz

Cifrado: Principal (guitarra y guitarra eléctrica)
Selo Cifra Club: esta cifra foi revisada para atender aos critérios oficiais da nossa Equipe de Qualidade.
tono: A
E|E|-------------------------------------------------------------------------------||
                             Protect and Serve - Moistboyz
E|E|-------------------------------------------------------------------------------||
Tabbed by: tylersugarcarlo

Tuning: EADGbe

*in regards to playing solos* "If you're gonna miss, miss BIG." Mickey M.

Intro
E|---------------|
B|---------------|
G|---------------|
D|-6-6-6-6-6-6-6-|
A|-6-6-6-6-6-6-6-|
E|-4-4-4-4-4-4-4-|


Main Riff
E|--------------------------------|
B|-----------------------5--7--8--|
G|-----5-----5-----5-----5--7--8--|
D|-----7-----7-----7-----7--7--7--|
A|-0-0---0-0---0-0---0-0----------|
E|--------------------------------| *before the transition, don't include the ascending notes

Riff 2
E|------------------------------------------------------------|
B|------------------------------------------------------------|
G|------------------------------------------------------------|
D|-3--3-3-3-3-3-3-3-3-3-3--3--5--3--3-~-~-~-~-3-6-6-6-6-6-6-6-|
A|-3--3-3-3-3-3-3-3-3-3-3--3--5--3--3-~-~-~-~-3-6-6-6-6-6-6-6-|
E|-1--1-1-1-1-1-1-1-1-1-1--1--3--1--1-~-~-~-~-1-4-4-4-4-4-4-4-|

Riff 3
E|--------------------------------------------------------------------------|
B|--------------------------------------------------------------------------|
G|--------------------------------------------------------------------------|
D|-3--3-3-3-3-3-3-3-3-3-3--3--5-----2-~-~-~-~-2-3---2-~-~-~-~-6-6-6-6-6-6-6-|
A|-3--3-3-3-3-3-3-3-3-3-3--3--5--2--2-~-~-~-~-2-3-2-2-~-~-~-~-6-6-6-6-6-6-6-|
E|-1--1-1-1-1-1-1-1-1-1-1--1--3--0--0-~-~-~-~-0-1-0-0-~-~-~-~-4-4-4-4-4-4-4-|

Chorus
E|---------------------------------------|
B|---------------------------------------|
G|-2--2--2h5p2p0---0--2-2-2--2h5p2p0---0-|
D|-2--2----------2----2-2-2----------2---|
A|-0--0---------------0-0-0--------------|
E|---------------------------------------| 3x


E|-----------------------------------|
B|-----------------------------------|
G|-2--2--2h5p2p0---0-----------------|
D|-2--2----------2-----6-6-6-6-6-6-6-|
A|-0--0----------------6-6-6-6-6-6-6-|
E|---------------------4-4-4-4-4-4-4-|

lyrics (anything without *riff* above it is the main riff)

You Shoulda Seen That Sucker, Man
And It Went Like This:
He Fired a Round or Two
And Then I Got Pissed

*riff 2*
My Brother, What Was it Like?
How Did it Feel to Take His Life?

I Was the Star of the Show
Here in My Hometown Rodeo

*riff 3*
And Down He Goes
Like a Sack of Potatoes 
From His Head to His Toes

I Didn't Wanna Shoot That Man
But I Believe In What I Do
Like Anybody Else, Man
I Got a Job to Do
When I Went Home to Tell My Wife
She Sided Right and It Saved My Life
There Was a Moment I Almost Cried 
For the Boys In Blue and it Would Love This Ride *?*

*riff 1*
Played the Devil's Hand
In the Devil's Land

Dispatch Call On the Radio
It Was My Number, I Was Ready to Go

*riff 2*
And I Made the Grade
Behind the Barricade
I'll Never Be the Same

*chorus*
God and Country
Mission Clear
On My Honor
Never Fear
Do My Duty
Keep My Nerve
What's the Word?
Protect and Serve

There Was Something Deep Inside
I Got a Feeling it Was My Time
'Protect and Serve' is a Thing of the Past
I Waited My Whole Life to Pop a Cap in the Ass

*riff 1*
Yellow Tape Surrounding the Chalk Line
Livin' the Dream and Lovin' the Lie

Go Nothing to Do With Me
E|t's| Democracy and the FOP            ----------> (Fraternal Order of Police, just so ya know)

*riff 2* 
Here You Say "Ain't It a Shame?"
While You Were Playing the Game
Did You Remember His Name?

*chorus*

solo (not today, kids. just rip harmonic minor scales and bend too high)

No Man is Above the Law
It's Killed or Be Killed
And That is All

*riff 2* 
Here You Say "Ain't It a Shame?"
While You Were Playing the Game
Did You Remember His Name?

*chorus*

END

************************************

| /   slide up
| \   slide down
| h   hammer-on
| p   pull-off
| ~   vibrato
| +   harmonic
| x   Mute note
| b   Bend
| pb  Pre-bend
| br  Bend release
| pbr Pre-bend release
| brb Bend release bend
Otros videos de esta canción
    8 exhibiciones
      • ½ Tono
      • A
      • Bb
      • B
      • C
      • Db
      • D
      • Eb
      • E
      • F
      • F#
      • G
      • Ab
    • Agregar a la lista

    Afinação da cifra

    Afinador online

      Ops (: Contenido disponible solo en portugués.
      OK