Cifra Club

Apples, Peaches, Bananas And Pears

The Monkees

Tab de bajo: Principal
Selo Cifra Club: esta cifra foi revisada para atender aos critérios oficiais da nossa Equipe de Qualidade.
[Intro]

G|---------|-------|-----|
D|---------|--5-3--|-5-5-|
A|---------|-------|-----|
E|-3-3-1-3-|-------|-----|


[Parte 1]

   I love you, girl, now that's the truth
G|---|-------|--------------|-------|-------|-4-3-2---|---------|
D|-2-|-------|----------5-5-|-5-4-2-|-------|-------5-|---------|
A|---|-5-3-2-|-2-0---2-5----|-------|-5-3-2-|---------|-0-5-0-7-|
E|---|-------|----3-3-------|-------|-------|---------|---------|


G|-------------|
D|-------------|
A|-5-3-2-0-----|
E|---------3-3-|


  Give me just...                   Apples, peaches,banana and pears 
G|------------|--------------------|----------|
D|-------5-2--|-------2-5----------|----------|
A|----2-5---5-|-5-3-3----3-3-3-----|----------|
E|-3-3--------|----------------5-3-|-3-3-1-3--|



[Parte 2]


   Run to me ...                              I won't do you wrong
G|---|-------|--------------|-------|-------|-4-3-2---|---------|-------------|
D|-2-|-------|----------5-5-|-5-4-2-|-------|-------5-|---------|-------------|
A|---|-5-3-2-|-2-0---2-5----|-------|-5-3-2-|---------|-0-5-0-7-|-5-3-2-0-----|
E|---|-------|----3-3-------|-------|-------|---------|---------|---------3-3-|


   Promise me ....                    Apples, peaches,banana and pears
G|---------------|-------------------|----------|
D|---------5-2---|------2-5----------|----------|
A|-----2-5-----5-|-5-3-3---3-3-3-----|----------|
E|-3-3-----------|---------------5-3-|--3-3-1-3-|


   00:51  I've said all I can today, girl
G|---------|------5-|-------|-------|-------|-----|-------|-------|
D|---7--5--|-----5--|-5-4---|-9-----|---5-7-|-----|-------|-------|
A|-5---5---|-5-3----|-----7-|---7---|-7-----|-7-5-|-0-3-5-|-0-3-5-|
E|---------|--------|-------|-----8-|-------|-----|-------|-------|







 [Repete introdução]

G|---|-----|
D|-3-|-5-5-|
A|---|-----|
E|---|-----|




 [Parte 3]

   Give me you     Girl, that's all I ask
G|---|-------|----------------|-------|-------|-4-3-2--|---------|
D|-2-|-------|------------5-5-|-5-4-2-|-------|------5-|---------|
A|---|-5-3-2-|-2-0----2-5-----|-------|-5-3-2-|--------|-0-5-0-7-|
E|---|-------|-----3-3--------|-------|-------|--------|---------|

                 I'll give it all back to you
G|-------------|------------|--------------------|
D|-------------|-------5-2--|-------2-5----------|
A|-5-3-2-0-----|----2-5---5-|-5-3-3----3-3-3-----|
E|---------3-3-|-3-3--------|----------------5-3-|



 [Solo de guitarra]

G|---------|-------------------------------------|
D|---------|-------------------------------------|
A|---------|-------------------------------------|
E|-3-3-1-3-|-3-3-3-3-3-3-3-3-3-3-3-3-3-3-3-3-1-3-|

[Parte 4]

G|---|-------|--------------|-------|-------|-4-3-2---|---------------|
D|-2-|-------|----------5-5-|-5-4-2-|-------|-------5-|-4-2-----------|
A|---|-5-3-2-|-2-0---2-5----|-------|-5-3-2-|---------|-----5-3-2-0---|
E|---|-------|----3-3-------|-------|-------|---------|-------------3-|



                                      Apples, Peaches, Bananas and Pears      
G|-----------------|-------------------|----------|
D|---------5-5-2---|-----2-5-----------|----------|
A|-----2-5-------5-|-3-3-----3-3-3-----|----------|
E|-3-3-------------|---------------5-3-|--3-3-1-3-|


[Final]

G|-----|-----|-----------|
D|-5-3-|-----|-----------|
A|-----|-5-2-|-5---------|
E|-----|-----|---3-3-1-3-|

Otros videos de esta canción
    10 exhibiciones

    Afinação da cifra

    Afinador online

    Ops (: Contenido disponible solo en portugués.
    OK