Cifra Club

La Muerte

Monsieur Periné

Cifrado: Principal (guitarra y guitarra eléctrica)
tono: Gm

E|---| INTRO1--|
Para hacer el mismo Intro de la canción, se pueden tomar estos mismos acordes
pero a partir del traste 15, es decir, 12 trastes más.
   Cm            G7            F7            A7
E|--3-5-5--3-5-5---3-5-5--3-5-5----5-6-6--5-6-6---5-6-6--5-6-6--|
B|--4-4-4--4-4-4---3-3-3--3-3-3----4-4-4--4-4-4---5-5-5--5-5-5--|
G|--5-3-3--5-3-3---4-4-4--4-4-4----5-5-5--5-5-5---6-5-5--6-5-5--|
D|--5-5-5--5-5-5---3-3-3--3-3-3----3-3-3--3-3-3---5-5-5--5-5-5--|
A|--3-3-3--3-3-3---5-5-5--5-5-5-------------------7-7-7--7-7-7--|
E|-----------------3-3-3--3-3-3-------------------5-5-5--5-5-5--|

|--INTRO2--|

   Gm6 Bbm6  Am6 D9  Gm6 Bbm6  Am6 D9
E|-----------------------------------------|
B|--8-------------------8------------------|
G|----7-5---5-7-8-6h7-----7-5---5-7-8-8-7--|
D|--------7-------------------7------------|
A|-----------------------------------------|
E|-----------------------------------------|

  Gm6 Bbm6   Am6 D9  Cm Bbmaj7 Amaj7 D7
E|---------------------5-------5-6-5--------|
B|-8---------------------8-7-8--------------|
G|---7-5---5-7-8-6h7-----------------7-8-7--|
D|-------7----------------------------------|
A|------------------------------------------|
E|------------------------------------------|

   Gm6     Bbm6   Am6  D9
La nuit se couche tard
    Gm6         Bbm6   Am6   D9
Les fleurs sont encore pâles
      Gm6   Bbm6  Am6 D9
C'est ta présence qui
Cm  Bbmaj7  Amaj7  D7
S ´éloigne

      Gm6   Bbm6  Am6    D9
Comme les petites voiles
    Gm6         Bbm6    Am6   D9
Des bateaux qui font naufrage
    Gm6     Bbm6   Am6 D9
Mes yeux se sont noyés
 Cm Bbmaj7 Amaj7  (F7 E7)
Enlarmes


CORO

 Cm
¡Aaay!
                  Gm6
Qué dolor, que me duelen tus besos
     A7
Tu ausencia
              D7  (F7 E7)
¿Quién la curará?

 Cm
¡Aaay!
                Gm6
Qué me lleve la muerte con ella
   A7
No quiero vivir
        D7
Si no estás

E|---S| E D PITE EL INTRO2---|

VERSO II

  Gm6      Bbm6   Am6 D9
Saliste un día normal
    Gm6     Bbm6 Am6 D9
Con prisa a trabajar
 Gm6   Bbm6 Am6 D9
Apenas te comiste un
Cm  Bmaj7  Amaj7  D7
Pan

   Gm6   Bbm6  Am6 D9
No quise preguntar
     Gm6   Bbm6   Am6 D9
Si estabas bien o mal
  Gm6   Bbm6 Am6 D9 Cm Bbmaj7 Amaj7 (F7 E7)
O si querías des-cansar


CORO

 Cm
¡Aaay!
                       Gm6
Quelle douleur qui me déchire le ventre
   A7
No quiero
             D7  (F7 E7)
Verte sufrir más

 Cm
¡Aaay!
                Gm6
Qué me lleve la muerte con ella
   A7
No quiero vivir
        D7
Si no estás


INTERLUDIO + IMPROVISACIÓN EN G menor

|: Gm6  Bbm6  Am6  D9 :| x3
Cm  Bbmaj7  Amaj7  D7

(se repite varias veces)


CORO

 Cm
¡Aaay!
                  Gm6
Qué dolor, que me duelen tus besos
     A7
Tu ausencia
              D7  (F7 E7) [-- Un solo rasgueo por acorde
¿Quién la curará?

 Cm
¡Aaay!
                Gm6
Qué me lleve la muerte con ella
   A7
No quiero vivir
        D7
Si no estás


FINAL    E|---S| E D PITE EL INTRO2---|

|: Gm6  Bbm6  Am6  D9 :| x3
Cm  Bbmaj7  Amaj7  D7  Gm6
00:00 / 00:00
Otros videos de esta canción
Repetir
Otros videos de esta canción
Composición de Monsier Periné
92 vistas
    • ½ Tono
    • Am
    • Bbm
    • Bm
    • Cm
    • C#m
    • Dm
    • Ebm
    • Em
    • Fm
    • F#m
    • Gm
    • G#m
  • Agregar a la lista

    0 comentarios

    Ver todos los comentarios

    ¿Lograste tocar?

    0 Tocaron 0 Aún no

    ¡Graba un video tocando La Muerte y envíanoslo!

    00:00 / 00:00
    OK