Cifra Club

Paper Money

Montrose

Cifrado: Principal (guitarra y guitarra eléctrica)
tono: G
Tab: Guitar
Tuning: Standard

Main (bass) riff

e --------------------------------I
B --------------------------------I
G --------------------------------I
D -----5--------------5-----------I
A -----------1--3-----------3--1--I
E --3-----3--------3-----3--------I

Verse

e --3-----1-----3--------1---3--I
B --3-----1-----3-----3--1---3--I
G --4-----2-----4-----3--2---4--I
D --5-----3-----5-----3--3---5--I
A --5-----3-----5-----1--3---5--I
E --3-----1-----3--------1---3--I
    G     F     G     Bb F   G

Chorus

e --1-------3--I
B --1---5---3--I
G --2---5---4--I
D --3---5---5--I
A --3---3---5--I
E --1-------3--I
    F   C   G

Chorus end

e --1----------I
B --1---5---7--I
G --2---5---7--I
D --3---5---7--I
A --3---3---5--I
E --1----------I
    F   C   D
00:00 / 00:00
Otros videos de esta canción
Repetir
Otros videos de esta canción
Compositor no encontrado.
9 vistas
    • ½ Tono
    • A
    • Bb
    • B
    • C
    • Db
    • D
    • Eb
    • E
    • F
    • F#
    • G
    • Ab
  • Agregar a la lista

    0 comentarios

    Ver todos los comentarios

    ¿Lograste tocar?

    0 Tocaron 0 Aún no

    ¡Graba un video tocando Paper Money y envíanoslo!

    00:00 / 00:00
    OK