Cifra Club

Alguem Pra Mim

Moptop

Cifrado: Principal (guitarra y guitarra eléctrica)
tono: D
Intro:

Só a guitarra solo (Rodrigo):


        D                          G
e|-----------------|      |-------------------|
B|-7-7-5-5-3-3-----|      |-/8-8-7-7-5-5------| 
G|-------------2-2-|      |--------------2-2--|
A|-----------------| 4X   |-------------------| 2X
D|-----------------|      |-------------------|
E|-----------------|      |-------------------|

                  A
e|---------------------------------9-9-|
B|-2-2-3-3-5-5-7-7-8-8-10-10-12-12-----|       
G|-------------------------------------|
A|-------------------------------------|
D|-------------------------------------|
E|-------------------------------------|

Depois entra a base que esta sobre as tabs (D, G, A)


D 
Não era tão normal 
G 
Pensava em se casar 
Em 
Veio ver o mar 
A7 
Eu vou ser feliz 
D 
Ela não chorou 
G 
Pensou em se jogar 
Em 
Veio se vender 
A7 
Eu vou até o fim 
Bm              G               D           A7  
Eu tentei ser, eu tentei ver, eu tentei te achar 
Bm           G           A7 
Encontrei beleza em seu lugar 
    D                 G 
Refrão ------------- Por que não vem me ver?  
A7               D 
Eu quero te escutar 
Bm           Em        A7 
Preciso de alguém pra mim 
D                   G 
Por que não vem me ver?  
A7              D   
Eu quero te abraçar 
Bm       Em          A7   
Preciso de você pra mim 
D               
Não foi sensacional 
G              
Pensou em não voltar 
Em                      A7    
Veio aqui comprar um sonho feliz 
D 
Tudo é tão banal 
G 
Não quero continuar 
Em 
Se é pra jogar 
A7 
Não vou mais fingir 
Bm             G               D             A7 
Eu tentei ser, eu tentei ver, eu tentei te achar 
Bm           G             A7 
Encontrei verdade em seu lugar 

 (Refrão)
00:00 / 00:00
Otros videos de esta canción
Repetir
Otros videos de esta canción
Compositor no encontrado.
Colaboración y revisión:
  • Francisco Oliveira
30 vistas
    • ½ Tono
    • A
    • Bb
    • B
    • C
    • Db
    • D
    • Eb
    • E
    • F
    • F#
    • G
    • Ab
  • Agregar a la lista

    0 comentarios

    Ver todos los comentarios
    00:00 / 00:00
    OK