Cifra Club

Beijo de Filme

Moptop

Cifrado: Principal (guitarra y guitarra eléctrica)
tono: C
E|------------------------------------------------------------------------------------------|
B|-------------------------3^---------------------------------------------------------------|
G|--------3-4-3-4---4-4-4----4--3-4-3-4--------------------------------2^-------------------|
D|-2-2--2---------2---------------------2-5-4-3--------3-4-3-4---4-4-4---4-3-4-3-4---5-4-3--| x2
A|----------------------------------------------2-2--2---------2-------------------2--------|
E|------------------------------------------------------------------------------------------|


Em        Em
Era um tanto esquisito
       Em                   Em
Jogava peteca contra o muro vizinho
    B7
Sem saber
              B7
Que a vizinha ao lado
       B7                     B7
Andava sozinha com os meninos do bairro
Em             Em
Mesmo um tanto inibido
          Em                Em
Formou-se palhaço na escola de circo
    B7
Com louvor
         B7                B7
Mestrado em riso, ganhou a vizinha
            B7
Com a piada do padre

      C   G
Escolha bem
       B7  G
Procure achar
         C
Se é que existe
                     G
Alguém que realmente te aguente
                   B7
Capaz de realmente te amar

Em            Em
Mesmo que não acredite
          Em                Em
Em amor de verdade em beijo de filme
        B7
Tem que haver
          B7
Alguém nesse mundo
           B7               B7
Que não te despreze Que não te repulse
  Em               Em
Pois mesmo que não acredite
         Em               Em
Em conto de fada em beijo de filme
     B7
Tem que haver
B7         Em
Alguém pra te amar

E|------------------------------------------------------------------------------------------|
B|-------------------------3^---------------------------------------------------------------|
G|--------3-4-3-4---4-4-4----4--3-4-3-4--------------------------------2^-------------------|
D|-2-2--2---------2---------------------2-5-4-3--------3-4-3-4---4-4-4---4-3-4-3-4---5-4-3--|
A|----------------------------------------------2-2--2---------2-------------------2--------|
E|------------------------------------------------------------------------------------------|

Em            Em
Era um tanto franzina
           Em               Em
De frente era meio de lado era nula
    B7
Sem sabor
          B7
Não muito barbada
          B7                  B7
Assustava os meninos por onde passava
Em               Em
Mesmo com tantos defeitos
         Em                Em
Achou um marido como tinha direito
    B7
Sem saber
           B7
Mas pouco importava
           B7               B7
Que não tinha dentes e nada enxergava

      C   G
Escolha bem
       B7  G
Procure achar
         C
Se é que existe
                     G
Alguém que realmente te aguente
                   B7
Capaz de realmente te amar

Em            Em
Mesmo que não acredite
          Em                Em
Em amor de verdade em beijo de filme
        B7
Tem que haver
          B7
Alguém nesse mundo
           B7               B7
Que não te despreze Que não te repulse
  Em              Em
Pois mesmo que não acredite
         Em               Em
Em conto de fada em beijo de filme
     B7
Tem que haver
B7          C        G
Alguém... que vá te amar
 B7          Em  Em/D
Alguém pra te aceitar
       C
Se é que existe
                     G
Alguém que realmente te aguente
                   B7
Capaz de realmente te amar...

E|-----------------------------------------|
B|-----------------------------------------|
G|-----------------------------------------|
D|-2-2-2-2-22-55-44-33-2-2-2-2-22-55-44-33-|
A|-----------------------------------------|
E|-----------------------------------------|

E|----------------------------------------------------------|
B|----------------------------------------------------------|
G|----------------------------------------------------------|
D|----------------------------------------------------------|
A|-2-2-2-2-22-55-44-33-2-2-2-2-22-55-44-33-2-2-2-2-22-3-4-5-|
E|----------------------------------------------------------|

E|--------------------------------------------------------------------------|
B|--------------------------------------------------------------------------|
G|--------------------------------------------------------------------------|
D|-2222222222-554433-2222222222-554433------------------------------------2-|
A|-------------------------------------2222222222-554433-2222222222-5-4-3---|
E|--------------------------------------------------------------------------|

00:00 / 00:00
Otros videos de esta canción
Repetir
Otros videos de esta canción
Composición de Gabriel Marques
Colaboración y revisión:
  • Thi Uwarow
  • Francisco Oliveira
49 vistas
    • ½ Tono
    • A
    • Bb
    • B
    • C
    • Db
    • D
    • Eb
    • E
    • F
    • F#
    • G
    • Ab
  • Agregar a la lista

    0 comentarios

    Ver todos los comentarios
    00:00 / 00:00
    OK