Cifra Club

Bom Par

Moptop

Cifrado: Principal (guitarra y guitarra eléctrica)
tono: G
[Intro]

E|------------------------------------------|
B|--------12--10----------------------------|
G|----------------12--11--9--11--12--11-----|
D|--10h12-- 12--12--12--12--12--12--12------|  (2x)
A|------------------------------------------|
E|------------------------------------------|

E|------------------------------------------|
B|--------13--12----------------------------|
G|----------------14--12--11--12--14--12----|
D|--12h14-- 14--14--14--14--14--14--14------|
A|------------------------------------------|
E|------------------------------------------|

E|------------------------------------------|
B|--------12--10----------------------------|
G|----------------12--11--9--11--12--11-----|
D|--10h12-- 12--12--12--12-12--12--12-------|
A|------------------------------------------|
E|------------------------------------------|

G
Eu sei
                 Em7
Que às vezes não sou quem
   Am
Te faz rir
   D
Te faz sonhar

   G
Eu não sei
            Em7
Às vezes eu não sei
    Am
Me conter
    D
Me comportar


(Refrão)
C            D
Deixa amanhecer
        G
Foi meu mal
D/F#       Em
Foi sem querer
         C           D          G
Vou aprender o que é ser um bom par

( Em7  Am  D )

G
Eu sei
                 Em7
Que às vezes não sou quem
   Am
Te faz rir
   D
Te faz sonhar

       G
Que eu não sei
            Em7
Às vezes eu não sei
    Am
Me conter
    D
Me controlar

C            D
Deixa amanhecer
        G
Foi meu mal
D/F#       Em
Foi sem querer
         C           D
Vou aprender o que é ser 

( A  F#m7  Bm  E )

D            E
Deixa amanhecer
        A
Foi meu mal
E/G#      F#m
Foi sem querer
      D        E    A   E/G#   F#m
Dessa vez vou ser
      D        E
Dessa vez vou ser
       A
Um bom par
00:00 / 00:00
Otros videos de esta canción
Repetir
Otros videos de esta canción
Composición de Gabriel Marques
Colaboración y revisión:
118 vistas
  • Simplificar cifrado
    • ½ Tono
    • A
    • Bb
    • B
    • C
    • Db
    • D
    • Eb
    • E
    • F
    • F#
    • G
    • Ab
  • Agregar a la lista

    0 comentarios

    Ver todos los comentarios
    00:00 / 00:00
    OK