Cifra Club

Bonanza

Moptop

Cifrado: Principal (guitarra y guitarra eléctrica)
tono: G
Intro:Em G A C A D B

Solo:
e|----------------------------------------------------------
B|----------------------------------------------------------
G|-------------------5-9---5--------------------------------
D|------5-9----5-7-----------7----5-4-----------------------
A|--7------------------------------------7-6---------10-9---
E|---------------------------------------------7-8-7--------
         

Em                                        A

Olho para frente não sei bem por quê prossigo nesse longo caminhar.

D                            B       

Ando mais um pouco, penso em todo meu desgosto, se um dia essa mágoa irá passar.

Em                                   A

Olho para trás, tento compreender as causas da minha perdição.

D                       B                                                 C

Sigo adiante, penso em todas as amantes que dediquei-me pra afastar.   

                       D 
                         
Me mostre a conclusão...

                 G                 Em

Ou traga-me algo pra animar

                 c             D                        Em

Meu pobre coração,                    que nega-se a pulsar.



Em                                     A 

Olho para frente não sei bem por quê avanço na mesma direção.

D                         B      

Rumo ao castigo penso em todos os inimigos que me esforcei pra conquistar.

Em                                   A

Olho para os lados e percebo que não tenho alguém pra me esquecer

D                             B                                                      C

Ando mais um pouco, penso em quando era garoto e havia tantos sonhos pra sonhar.

                   D         D  C  B

Me mostre a conclusão

                       Em          C

Escreve esse final

                 D           D  C  B

Me mostre a direção...

                    Em
  
Me dê algum sinal...

                C             D

Pois tem que haver.

           G                  Em           C

Tem que haver... alguma redenção,
  
               D       D  C  B       

meu pobre coração 



que nega-se a pulsar...


Solo:
e-------12----10------------------10-----------------
b-12-12----12------13-13----10-10----10--13---12-12--
g----------------------------------------------------
d----------------------------------------------------
a----------------------------------------------------
E----------------------------------------------------

e-------8----7---------------------------------------
b----8----8------10-10-------------------------------
g----------------------------------------------------
d----------------------------------------------------
a----------------------------------------------------
E----------------------------------------------------




Base: Em C D G C D



Final: Repetir 4 vezes

g--5-2-5-4--4--4-5--5--5-4--4--4-5-7-5---------------
d--5-2-5-4--4--4-5--5--5-4--4--4-5-7-5---------------
a--3-0-3-2--2--2-3--3--3-2--2--2-3-5-3---------------
E---------------------------------------------------- 



Tab By Evandro.
00:00 / 00:00
Otros videos de esta canción
Repetir
Otros videos de esta canción
Composición de Gabriel Marques
Colaboración y revisión:
  • Evandro Filho
75 vistas
    • ½ Tono
    • A
    • Bb
    • B
    • C
    • Db
    • D
    • Eb
    • E
    • F
    • F#
    • G
    • Ab
  • Agregar a la lista

    0 comentarios

    Ver todos los comentarios
    00:00 / 00:00
    OK