Cifra Club

Contramão

Moptop

Cifrado: Principal (guitarra y guitarra eléctrica)
tono: C
Introdução :

E|------------------------------------------------------------------|
B|------------------------------------------------------------------|
G|------------------------------------------------------------------|
D|------------------------------------------------------------------|
A|-------3-7^--------3-6^--------3-8-7^------3-6^----6-6-5-3--------|
E|---5-5---------5-5---------5-5---------5-5------------------------|

E|------------------------------------------------------------------|
B|------------------------------------------------------------------|
G|------------------------------------------------------------------|
D|------------------------------------------------------------------|
A|-0-0-0-3-0-77-0-3-0-77-0-3-0-77-0-3-0-88-0-3-0-88-0-3-0-88--------|
E|------------------------------------------------------------------|

E|------------------------------------------------------------------|
B|------------------------------------------------------------------|
G|------------------------------------------------------------------|
D|------------------------------------------------------------------|
A|-0-3-0-88-0-3-0-77-0-3-0-77-0-3-0-77-0-3-0-77-0-3-0-88-0-3-0-88---|
E|------------------------------------------------------------------|

E|------------------------------------------------------------------|
B|------------------------------------------------------------------|
G|------------------------------------------------------------------|
D|------------------------------------------------------------------|
A|-0-3-0-88-0-3-0-88-0-3-0-0^---------------------------------------|
E|------------------------------------------------------------------|


          Am
Tentou frear
Faltou coragem
                      Dm
Agora é tarde pra voltar
           Am
Tentou mentir
É bobagem
                     Dm
É só uma fase vai passar
         F
O que fazer?
            Dm
Se a contramão
       E
Te persegue, te enlouquece
    Am            G
Provoca, te entorpece
      F  Dm
De tesão
          E
De estupidez

Am Dm 2x

         F
Como ajudar?
            Dm
Se a contramão
      E
Se o afago do pecado
    Am         G
Te deixa despojado
      F  Dm
De razão
        E
De lucidez
               F  G Am
Me pede pra ficar
                G     Dm
Me pede pra cuidar de você
               F  G Am
Me pede pra ficar
       G            Am
Pra ficar... com você
           Am
Como é que é
Ser encontrado
Jogado e desmaiado
     Dm
O orgulho dilacerado
Espalhado pelo chão

               F  G Am
Me pede pra ficar
                G     Dm
Me pede pra cuidar de você
               F  G Am
Me pede pra ficar
                G     Dm
Me pede pra cuidar de você
               F  G Am
Me pede pra ficar
       G            Am
Pra ficar... com você
00:00 / 00:00
Otros videos de esta canción
Repetir
Otros videos de esta canción
Composición de Gabriel Marques
Colaboración y revisión:
  • Caique Moreira
  • junior
  • vítor alves
95 vistas
    • ½ Tono
    • A
    • Bb
    • B
    • C
    • Db
    • D
    • Eb
    • E
    • F
    • F#
    • G
    • Ab
  • Agregar a la lista

    0 comentarios

    Ver todos los comentarios
    00:00 / 00:00
    OK